» » »

Nirvana, Come As You Are Unplugged Bass tabs (ver.1)

Artists:  A B C D E F G H I J K L M N O P Q R S T U V W X Y Z # 

Come As You Are Unplugged Bass tabs (ver.1)

Nirvana Tabs
Rating:
0/5 (0 votes)
Come As You Are Unplugged lessons Tabs too difficult? Try these video lessons and learn fast
                "(1)
Tuning: Standard

Verse:
G-----------0----0-----------2-----2---|-
D-0-0-1-2----2----2--2-1-0----0-0------|-
A--------------------------------------|-
E--------------------------------------|-

Memoria...
G------------------------------------|-
D------------------------------------|-
A--0-0-0-0-0-0-0-0-3-3-3-3-3-3-3-3---|-
E------------------------------------|-

And i swear that...
G------------------------------------|-
D--0-0-0-0-0-0-0-2-3-3-3-3-3-3-3-1---|-
A------------------------------------|-
E------------------------------------|-

Outro:
G------------|-
D------------|-
A------------|-
E--5-5-6-7---|-

Lyrics:
Come as you are, as you were, 
As I want you to be 
As a friend, as a friend, as an old enemy. 
Take your time, hurry up 
The choice is yours, don't be late. 
Take a rest, as a friend, as an old memoria 
Memoria (x3) 

Come dowsed in mud, soaked in bleach 
As I want you to be 
As a trend, as a friend, as an old memoria 
Memoria (x3) 

And I swear that I don't have a gun 
No I don't have a gun (x2) 

Memoria (x3)
"            
Submit corrections

comments powered by Disqus
↑ Back to top | Nirvana Bass for Come As You Are Unplugged. Lyrics for acoustic guitar and electric guitar. Tablatures and chords are parodies/interpretations of the original songs. You may use it for private study, scholarship, research or language learning purposes only