» » »

Nirvana, Blew Bass tabs (ver.2)

Artists:  A B C D E F G H I J K L M N O P Q R S T U V W X Y Z # 

Blew Bass tabs (ver.2)

Nirvana Tabs
 Rating:
4/5 (4 votes)
Blew lessons Tabs too difficult? Try these video lessons and learn fast
                    This is my very first tablature, in a very long time!
    so hope you enjoy and many thanks :D


    ^ bend 1/2
    h hammer

    Intro

 G |--------------|-------------|----------------|-------------|
 D |--------------|-------------|----------------|-------------|
 A |--------------|-------------|----------------|-------------|
 E |--0-3-5^-5^-5-|-0-3-5^-5^-5-|-0-3-5^-5^-5^-5-|-0-0-3-5^-5^-|

   |---------------|---------------|---------------|---------------|
   |---------------|---------------|---------------|---------------|
   |---------------|---------------|---------------|---------------|
   |-0-0-3-5^-5^-5-|-3-3-0-3h5-3h5-|-0-0-3-5^-5^-5-|-3-3-0-3h5-3h5-|


    Verse (x8)

   |---------------|---------------|---------------|---------------|
   |---------------|---------------|---------------|---------------|
   |---------------|---------------|---------------|---------------|
   |-0-0-3-5^-5^-5-|-3-3-0-3h5-3h5-|-0-0-3-5^-5^-5-|-3-3-0-3h5-3h5-|


   Chorus 

   |-----------------|---------------|-----------------|---------------|
   |-----------------|---------------|-----------------|---------------|
   |-----------------|---------------|-----------------|---------------|
   |-3-5---5-5-3---3-|-3-5---5-5-3-6-|-3-5---5-5-3---3-|-3-5---5-5-3-6-|


                                      shame.___________________________
   |-----------------|---------------|-----------------|-----------------|
   |-----------------|---------------|-----------------|-----------------|
   |-----------------|---------------|-----------------|-----------------|
   |-3-5---5-5-3---3-|-3-5---5-5-3-6-|-7-7-7-7-7-7-7-7-|-7-7-7-7-7-7-7-7-|


    G.solo (x4)

   |---------------|---------------|---------------|---------------|
   |---------------|---------------|---------------|---------------|
   |---------------|---------------|---------------|---------------|
   |-0-0-3-5^-5^-5-|-3-3-0-3h5-3h5-|-0-0-3-5^-5^-5-|-3-3-0-3h5-3h5-|


   Chorus 

   |-----------------|---------------|-----------------|---------------|
   |-----------------|---------------|-----------------|---------------|
   |-----------------|---------------|-----------------|---------------|
   |-3-5---5-5-3---3-|-3-5---5-5-3-6-|-3-5---5-5-3---3-|-3-5---5-5-3-6-|


                                      shame.___________________________
   |-----------------|---------------|-----------------|-----------------|
   |-----------------|---------------|-----------------|-----------------|
   |-----------------|---------------|-----------------|-----------------|
   |-3-5---5-5-3---3-|-3-5---5-5-3-6-|-7-7-7-7-7-7-7-7-|-7-7-7-7-7-7-7-7-|


   Outro 

   |---------------|-------------|----------------|-------------|
   |---------------|-------------|----------------|-------------|
   |---------------|-------------|----------------|-------------|
   |-0-0-3-5^-5^-5-|-0-3-5^-5^-5-|-0-3-5^-5^-5^-5-|-0-3-5^-5^-5-|


   |-----------|-------------|----------------|-------------|
   |-----------|-------------|----------------|-------------|
   |-----------|-------------|----------------|-------------|
   |-0-3-5^-5^-|-0-----------|-0--------------|-0-----------|

   

    Note:
   
    Am not a 100% on the guitar solo,i know there is other riffs going on,
    but am very sure i got the out line of the solo :) 

    anyway thank you and hope you enjoy 

    S.
            
Submit corrections

comments powered by Disqus
↑ Back to top | Nirvana Bass for Blew. Lyrics for acoustic guitar and electric guitar. Tablatures and chords are parodies/interpretations of the original songs. You may use it for private study, scholarship, research or language learning purposes only