» » »

Nirvana, Aneursym Bass tabs (ver.4)

Artists:  A B C D E F G H I J K L M N O P Q R S T U V W X Y Z # 

Aneursym Bass tabs (ver.4)

Nirvana Tabs
Rating:
0/5 (0 votes)
Hard to play? Try these video lessons and learn fast.
                Nirvana
Aneurysm

The current tabbing for Nirvana's song aneursym is missing some parts so I have written 
out the corrected version below and I would appreciate it if you replaced the old one with it
 

The intro/outro was correct in the old tab so I left

It the same:

G|---------------------------------------------------|                                         
D|---------------------------------------------------|
A|--------------3-3-3-3-2-2-2-2-0-0-0-0--------------|
E|---2-2-2-2-----------------------------------------|

When the guitar goes mad just keep playing the F# note on the E string(2nd fret)

verse

then play this which was also correct in the old tab

G|----------------------------------||-------------------------------------|
D|----------------------------------||-------------------------------------|
A|---2-2-2-2-2-2-2-2-2-2-2-2-2-2-2--||---5--5--5--5-5-5-5-5-5-5-5-5-5-5-5--|
E|----------------------------------||-------------------------------------| repeat twice

 when Kurt starts singing Krist adds in some fancy parts

 the first time he plays:

G|-------------------------------------||----------------------------------|
D|-------------------------------------||----------------------3-----------|
A|---2-2-2-2-2-2-2-2-2-2-2-2-2-2-2-----||---5--5--5--5-5--5-3-5-5-3-2-0----|
E|-------------------------------------||----------------------------------|

 the second time it is:

G|-------------------------------------||----------------------------------|
D|-------------------------------------||----------------------------------|
A|---2-2-2-2-2-2-2-2-2-2-2-2-2-2-2-----||---5--5--5--5-5--5-5-5-5-3-5-3-5-3|
E|-------------------------------------||----------------------------------|

and then( i'm not sure about this one)

G|-------------------------------------||----------------------------------|
D|-------------------------------------||----------------------------------|
A|---2-2-2-2-2-2-2-2-2-2-2-2-2-2-2-----||---5--5--5--5-5---3-5---3-5---5---|
E|-------------------------------------||---------------2-----2------2---2-|

the last time he plays

 

 

G|---------------------------------||--------------------------------------|
D|---------------------------------||--------------------------------------|
A|---2-2-2-2-2-2-2-2-2-2-2-2-2-2-2-||-5--5--5--5-5-5-5-5-5-5-5-5-5-5-5/----|
E|---------------------------------||--------------------------------------|

then the chorus(another part that was correct in the old tab)

G|------------------------------------------------|
D|------------------------------------------------|
A|------------------------------------------------|
E|---2--2-2-0--0-0-0-2-2-2-2-0-0-0-0--------------|

and thats it, I hope it all makes sense

 
            

comments powered by Disqus
↑ Back to top | Nirvana Bass for Aneursym. Lyrics for acoustic guitar and electric guitar. Tablatures and chords are parodies/interpretations of the original songs. You may use it for private study, scholarship, research or language learning purposes only