>
 >
Aneurysm 2

Aneurysm 2 Bass Tabs

Nirvana - Aneurysm 2 chords, tabs, tablatures, lyrics

Guitar lessons | Add/correct | Request | Top 50 tabs Artists:  A B C D E F G H I J K L M N O P Q R S T U V W X Y Z 0-9

Aneurysm 2 Bass Tabs – Nirvana

CD, Sheet music, Poster

Do you like Aneurysm 2? Share with your friends now
Bass TabsBass Tabs v2Bass Tabs v3ChordsTabsTabs v2Tabs v3Tabs v4Tabs v5Tabs v6Tabs v7Tabs v8Tabs v9

ANEURYSM (Bassline)
As recorded by Nirvana


	



Gtr I (E A D G B E) - 'Percussion'
Gtr II (E A D G) - 'Picked Bass'

  Q=143
 4/4
  Gtr I
  W          W          W          W
|----------|----------|----------|------|
|----------|----------|----------|------|
|----------|----------|----------|------|
|----------|----------|----------|------|
|----------|----------|----------|------|
|----------|----------|----------|------|


   E  E  E  E  E  E  E  E    E  E  E  E  E  E  E  E
|-------------------------|-------------------------|
|-10----------------------|-------------------------|
|--0----------------------|-------------------------|
|--7--7--7--7--7--7--7--7-|--7--7--7--7--7--7--7--7-|
|----10-10-10-10-10-10-10-|-10-10-10-10-10-10-10-10-|
|--8-----------8----------|--8-----------8----------|
|
| Gtr II
|  Q     E  E  E  E  E  E    E  E  E  E  E  E  E  E
|-------------------------|-------------------------|
|-------------------------|-------------------------|
|--------------3--3--3--3-|--2--2--2--2--0--0--0--0-|
|--2-----2--2-------------|-------------------------|


   E  E  E  E  E  E  E  E    E  E  E  E  E  E  E  E
|-------------------------|-------------------------|
|-------------------------|-------------------------|
|-------------------------|-------------------------|
|--7--7--7--7--7--7--7--7-|--7--7--7--7--7--7--7--7-|
|-10-10-10-10-10-10-10-10-|-10-10-10-10-10-10-10-10-|
|--8-----------8----------|--8-----------8----------|
|
|  Q     E  E  E  E  E  E    E  E  E  E  E  E  E  E
|-------------------------|-------------------------|
|-------------------------|-------------------------|
|--------------3--3--3--3-|--2--2--2--2--0--0--0--0-|
|--2-----2--2-------------|-------------------------|


   E  E  E  E  E  E  E  E    E  E  E  E  E  E  E  E
|-------------------------|-------------------------|
|-------------------------|-------------------------|
|-------------------------|-------------------------|
|--7--7--7--7--7--7--7--7-|--7--7--7--7--7--7--7--7-|
|-10-10-10-10-10-10-10-10-|-10-10-10-10-10-10-10-10-|
|--8-----------8----------|--8-----------8----------|
|
|  Q     E  E  E  E  E  E    E  E  E  E  E  E  E  E
|-------------------------|-------------------------|
|-------------------------|-------------------------|
|--------------3--3--3--3-|--2--2--2--2--0--0--0--0-|
|--2-----2--2-------------|-------------------------|


   E  E  E  E  E  E  E  E    E  E  E  E  E S S E S S
|-------------------------|--------------------------|
|-------------------------|--------------------------|
|-------------------------|--------------------------|
|--7--7--7--7--7--7--7--7-|--7--7--7--7--7-5-5---7-7-|
|-10-10-10-10-10-10-10-10-|-10-10-10-10-10-----5-----|
|--8-----------8----------|--8-----8-----8-----------|
|
|  Q     E  E  E  E  E  E    E  E  E  E  E E   E E
|-------------------------|--------------------------|
|-------------------------|--------------------------|
|--------------3--3--3--3-|--2--2--2--2--0-0---0-0---|
|--2-----2--2-------------|--------------------------|


   Q  E.   S E E E S S   E E E E  E  S  S S S S S    Q  E.   S E E E S S
|----------------------|--------------------------|----------------------|
|-10-------------------|--------------------------|-10-------------------|
|-----6------6---6-----|-6---6--------------------|-----6------6---6-----|
|-----0----------0-----|-----0---11-------9-9-7-7-|-----0----------0-----|
|----------5---------5-|--------------------------|----------5---------5-|
|--8---------8-8-------|-8-8---8--8-10-10---------|--8---------8-8-------|
|
|  Q  E  E   E E E E     E E E E  E  E    E   E      Q  E  E   E E E E
|----------------------|--------------------------|----------------------|
|----------------------|--------------------------|----------------------|
|------------3-3-3-3---|-2-2-2-2--0--0----0---0---|------------3-3-3-3---|
|--2--2--2-------------|--------------------------|--2--2--2-------------|


  E E E S S E S S E S S   Q  E.   S E E E S S   E E E E  E  S  S S S S S
|-----------------------|-5-------------------|---------------------------|
|-----------------------|---------------------|---------------------------|
|-6---6-----6-----6-----|----6------6---6-----|-6---6---------------------|
|-----0-----------------|----0----------0-----|-----0---11-------9-9-7-7--|
|-------5-5---5-5---5-5-|---------5---------5-|---------------------------|
|-8-8-------8-----------|-8---------8-8-------|-8-8---8--8-10-10----------|
|
| E E E E   E E   E E     Q  E  E   E E E E     E E E E  E  E    E   E
|-----------------------|---------------------|---------------------------|
|-----------------------|---------------------|---------------------------|
|-2-2-2-2---0-0---0-0---|-----------3-3-3-3---|-2-2-2-2--0--0----0---0----|
|-----------------------|-2--2--2-------------|---------------------------|


   Q  E.   S E E E S S   E E E S S E S S E S S   Q  E.   S E E E S S
|----------------------|-----------------------|-5-------------------|
|-10-------------------|-----------------------|---------------------|
|-----6------6---6-----|-6---6-----6-----6-----|----6------6---6-----|
|-----0----------0-----|-----0-----------------|----0----------0-----|
|----------5---------5-|-------5-5---5-5---5-5-|---------5---------5-|
|--8---------8-8-------|-8-8-------8-----------|-8---------8-8-------|
|
|  Q  E  E   E E E E     E E E E   E E   E E     Q  E  E   E E E E
|----------------------|-----------------------|---------------------|
|----------------------|-----------------------|---------------------|
|------------3-3-3-3---|-2-2-2-2---0-0---0-0---|-----------3-3-3-3---|
|--2--2--2-------------|-----------------------|-2--2--2-------------|


  E E E E  E  S  S S S S S    Q  E.   S E E E S S   E E E S S E S S E S S
|--------------------------|----------------------|------------------------|
|--------------------------|-10-------------------|------------------------|
|-6---6--------------------|-----6------6---6-----|-6---6-----6-----6------|
|-----0---11-------9-9-7-7-|-----0----------0-----|-----0------------------|
|--------------------------|----------5---------5-|-------5-5---5-5---5-5--|
|-8-8---8--8-10-10---------|--8---------8-8-------|-8-8-------8------------|
|
| E E E E  E  E    E   E      Q  E  E   E E E E     E E E E   E E   E E
|--------------------------|----------------------|------------------------|
|--------------------------|----------------------|------------------------|
|-2-2-2-2--0--0----0---0---|------------3-3-3-3---|-2-2-2-2---0-0---0-0----|
|--------------------------|--2--2--2-------------|------------------------|


  Q  E.   S E E E S S   E E E E  E  S  S S S S S    Q  E.   S E E E S S
|-5-------------------|--------------------------|----------------------|
|---------------------|--------------------------|-10-------------------|
|----6------6---6-----|-6---6--------------------|-----6------6---6-----|
|----0----------0-----|-----0---11-------9-9-7-7-|-----0----------0-----|
|---------5---------5-|--------------------------|----------5---------5-|
|-8---------8-8-------|-8-8---8--8-10-10---------|--8---------8-8-------|
|
| Q  E  E   E E E E     E E E E  E  E    E   E      Q  E  E   E E E E
|---------------------|--------------------------|----------------------|
|---------------------|--------------------------|----------------------|
|-----------3-3-3-3---|-2-2-2-2--0--0----0---0---|------------3-3-3-3---|
|-2--2--2-------------|--------------------------|--2--2--2-------------|


                          Q=137
  E E E S S E S S E S S   Q  Q  Q  Q    Q  Q  Q  Q    Q  Q  Q  Q
|-----------------------|-5-----------|-5-----------|-5------------|
|-----------------------|-------------|-------------|--------------|
|-6---6-----6-----6-----|-6--3--3--3--|-6--3--3--3--|-6--3--3--3---|
|-----0-----------------|-------------|-------------|--------------|
|-------5-5---5-5---5-5-|-------------|-------------|--------------|
|-8-8-------8-----------|-8-----------|-8-----------|-8------------|
|
| E E E E   E E   E E     W             W             W
|-----------------------|-------------|-------------|--------------|
|-----------------------|-------------|-------------|--------------|
|-2-2-2-2---0-0---0-0---|-------------|-------------|--------------|
|-----------------------|-2-----------|-2-----------|-2------------|


  Q  Q  Q  Q    Q  Q  Q  Q    Q  Q  Q  Q    Q  Q  Q  Q
|-5-----------|-5-----------|-5-----------|-5-----------|
|-------------|-------------|-------------|-------------|
|-6--3--3--3--|-6--3--3--3--|-6--3--3--3--|-6--3--3--3--|
|-------------|-------------|-------------|-------------|
|-------------|-------------|-------------|-------------|
|-8-----------|-8-----------|-8-----------|-8-----------|
|
| W             W             W             W
|-------------|-------------|-------------|-------------|
|-------------|-------------|-------------|-------------|
|-------------|-------------|-------------|-------------|
|-2-----------|-2-----------|-2-----------|-2-----------|


  Q=128
  Q  Q  E S S E E   E E E S S E E E S S   E E E S S E E E S S
|-5---------------|-5-------------------|----------------------|
|-----------------|---------------------|----------------------|
|-6--3--3-2-2---0-|-0-------------------|----------------------|
|-------------0---|---5---7-5-5-5---7-5-|-5-5---7-5-5-5---7-5--|
|-----------------|-----5---------5-----|-----5---------5------|
|-8---------------|---------------------|----------------------|
|
| W                 E E E E   E E E E     E E E E   E E E E
|-----------------|---------------------|----------------------|
|-----------------|---------------------|----------------------|
|-----------------|-2-2-2-2---2-2-2-2---|-2-2-2-2---2-2-2-2----|
|-2---------------|---------------------|----------------------|


  E E E S S E E E S S   E E E E E E E E
|---------------------|-----------------|
|---------------------|-----------------|
|---------------------|-----------------|
|-5-5---7-5-5-5---7-5-|-5-5---5-5-----7-|
|-----5---------5-----|-----5-----5-5---|
|---------------------|---------------8-|
|
| E E E E   E E E E     E E E E E E E E
|---------------------|-----------------|
|---------------------|-----------------|
|-2-2-2-2---2-2-2-2---|-2-2-2-2-2-2-2-2-|
|---------------------|-----------------|


   Q   E E E E  E E    E  E  E E  E E  E  S  S
|-------------------|---------------------------|
|-10----------------|---------------------------|
|-------------------|---------------------------|
|------8---8----8---|--8-----8----8----8--------|
|-------------------|--------------------10-10--|
|--8--10---8-8-10-8-|-----8-10-8-10-8-10--------|
|
|  Q   Q   E E  E E   +E  E  E E  E E  Q
|-------------------|---------------------------|
|--0---0---0-0--0-0-|-(0)-0--0-0--0-0--0--------|
|-------------------|---------------------------|
|-------------------|---------------------------|


   E  E  E  S  S  E  E  E  S  S    E  E  E  E  E  E  E E
|-------------------------------|------------------------|
|-------------------------------|------------------------|
|-------------------------------|------------------------|
|-------------------------------|----------------------7-|
|-10-10----12-10-10-10----12-10-|-10-10----10-10---------|
|-------10-------------10-------|-------10-------10-10-8-|
|
|  E  E  E  E     E  E  E  E       E  E  E  E  E  E  E E
|-------------------------------|------------------------|
|-------------------------------|------------------------|
|--2--2--2--2-----2--2--2--2----|--2--2--2--2--2--2--2-0-|
|-------------------------------|------------------------|


   Q   E E E E  E E    E  E  E E  E E  E  S  S
|-------------------|---------------------------|
|-10----------------|---------------------------|
|-------------------|---------------------------|
|------8---8----8---|--8-----8----8----8--------|
|-------------------|--------------------10-10--|
|--8--10---8-8-10-8-|-----8-10-8-10-8-10--------|
|
|  Q   Q   E E  E E   +E  E  E E  E E  Q
|-------------------|---------------------------|
|--0---0---0-0--0-0-|-(0)-0--0-0--0-0--0--------|
|-------------------|---------------------------|
|-------------------|---------------------------|


   E  E  E  S  S  E  E  E  S  S    E  E  E  E  E  E  E E
|-------------------------------|------------------------|
|-------------------------------|------------------------|
|-------------------------------|------------------------|
|-------------------------------|----------------------7-|
|-10-10----12-10-10-10----12-10-|-10-10----10-10---------|
|-------10-------------10-------|-------10-------10-10-8-|
|
|  E  E  E  E     E  E  E  E       E  E  E  E  E  E  E E
|-------------------------------|------------------------|
|-------------------------------|------------------------|
|--2--2--2--2-----2--2--2--2----|--2--2--2--2--2--2--2-2-|
|-------------------------------|------------------------|


   Q   E E E E  E E    E  E  E E  E E  E  S  S
|-------------------|---------------------------|
|-10----------------|---------------------------|
|-------------------|---------------------------|
|------8---8----8---|--8-----8----8----8--------|
|-------------------|--------------------10-10--|
|--8--10---8-8-10-8-|-----8-10-8-10-8-10--------|
|
|  Q   Q   E E  E E   +E  E  E E  E E  E  E
|-------------------|---------------------------|
|--0---0---0-0--0-0-|-(0)------3----------------|
|-------------------|-----3--5----5-3--2--0-----|
|-------------------|---------------------------|


   E  E  E  S  S  E  E  E  S  S    E  E  E  E  E  E  E E
|-------------------------------|------------------------|
|-------------------------------|------------------------|
|-------------------------------|------------------------|
|-------------------------------|----------------------7-|
|-10-10----12-10-10-10----12-10-|-10-10----10-10---------|
|-------10-------------10-------|-------10-------10-10-8-|
|
|  E  E  E  E     E  E  E  E       E  E  E  E  E  E  E E
|-------------------------------|------------------------|
|-------------------------------|------------------------|
|--2--2--2--2-----2--2--2--2----|--2--2--2--2--2--2--2-2-|
|-------------------------------|------------------------|


   Q    E E E E  E  E   E E  E  E  E E  E  S  S
|---------------------|--------------------------|
|-10------------------|--------------------------|
|---------------------|--------------------------|
|-------8---8----8----|-8----8-----8----8--------|
|---------------------|-------------------10-10--|
|--8---10---8-8-10--8-|---8-10--8-10-8-10--------|
|
|  Q.     E E E +E  E   E E +E  E  E E  E  E
|---------------------|--------------------------|
|--0------0-0---------|--------------------------|
|-------------------5-|-5-------5--5-3--5--3-----|
|-------------3-(3)---|---3-(3)------------------|


   E  E  E  S  S  E  E  E  S  S    E  E  E  E  E  E  E E
|-------------------------------|------------------------|
|-------------------------------|------------------------|
|-------------------------------|------------------------|
|-------------------------------|----------------------7-|
|-10-10----12-10-10-10----12-10-|-10-10----10-10---------|
|-------10-------------10-------|-------10-------10-10-8-|
|
|  E  E  E  E     E  E  E  E       E  E  E  E  E  E  E E
|-------------------------------|------------------------|
|-------------------------------|------------------------|
|--2--2--2--2-----2--2--2--2----|--2--2--2--2--2--2--2-2-|
|-------------------------------|------------------------|


   Q   E E E E  E E    E  E  E E  E E  E  S  S
|-------------------|---------------------------|
|-10----------------|---------------------------|
|-------------------|---------------------------|
|------8---8----8---|--8-----8----8----8--------|
|-------------------|--------------------10-10--|
|--8--10---8-8-10-8-|-----8-10-8-10-8-10--------|
|
|  Q   Q   E E  E E   +E  E  E E  E E  E  E
|-------------------|---------------------------|
|--0---0---0-0--0-0-|-(0)------3----------------|
|-------------------|-----3--5----5-3--2--0-----|
|-------------------|---------------------------|


   E  E  E  S  S  E  E  E  S  S    E  E  E  E  E  E  E E
|-------------------------------|------------------------|
|-------------------------------|------------------------|
|-------------------------------|------------------------|
|-------------------------------|----------------------7-|
|-10-10----12-10-10-10----12-10-|-10-10----10-10---------|
|-------10-------------10-------|-------10-------10-10-8-|
|
|  E  E  E  E     E  E  E  E       E  E  E  E  E  E  E E
|-------------------------------|------------------------|
|-------------------------------|------------------------|
|--2--2--2--2-----2--2--2--2----|--2--2--2--2--2--2--2-2-|
|-------------------------------|------------------------|


   Q   E E E E  E E    E  E E E E E E S S
|-------------------|----------------------|
|-10----------------|----------------------|
|-------------------|----------------------|
|------8---8----8---|--8-------------------|
|-------------------|-----5-5-5-5-5-5-5-5--|
|--8--10---8-8-10-8-|--8--8-8--------------|
|
|  Q   Q   E E  E E   +E  E E E E E E E
|-------------------|----------------------|
|--0---0---0-0--0-0-|-(0)-0-0-0-0-0-0-0----|
|-------------------|----------------------|
|-------------------|----------------------|


  E E E E  E  E E S S   E E E E E E E E
|-5-------------------|-----------------|
|---------------------|-----------------|
|---3-3-3--3--3-3-3---|-3-3-3-3-3-3-3-3-|
|-----0-0-------0-----|-----0-0-----0---|
|---3---------3-----5-|-3-3-----3-3-----|
|-8-------------------|-----------------|
|
| E E E E +E  E E E     E E E E E E E E
|---------------------|-----------------|
|---------------------|-----------------|
|---------------------|-----------------|
|-2-2-4-5-(5)-5-5-6---|-7-7-7-6-5-5-5-5-|


  E E E E  E  E E S S   E E E E E E E E
|-5-------------------|-----------------|
|---------------------|-----------------|
|---3-3-3--3--3-3-3---|-3-3-3-3-3-3-3-3-|
|-----0-0-------0-----|-----0-0-----0---|
|---3---------3-----5-|-3-3-----3-3-----|
|-8-------------------|-----------------|
|
| E E E E +E  E E E     E E E E E E E E
|---------------------|-----------------|
|---------------------|-----------------|
|---------------------|-----------------|
|-2-2-4-5-(5)-5-5-6---|-7-7-7-6-5-5-5-5-|


  E E E E  E  E E S S   E E E E E E E E
|-5-------------------|-----------------|
|---------------------|-----------------|
|---3-3-3--3--3-3-3---|-3-3-3-3-3-3-3-3-|
|-----0-0-------0-----|-----0-0-----0---|
|---3---------3-----5-|-3-3-----3-3-----|
|-8-------------------|-----------------|
|
| E E E E +E  E E E     E E E E E E E E
|---------------------|-----------------|
|---------------------|-----------------|
|---------------------|-----------------|
|-2-2-4-5-(5)-5-5-6---|-7-7-7-6-5-5-5-5-|


  E E E E  E  E E S S   E E E E E E E E
|-5-------------------|-----------------|
|---------------------|-----------------|
|---3-3-3--3--3-3-3---|-3-3-3-3-3-3-3-3-|
|-----0-0-------0-----|-----0-0-----0---|
|---3---------3-----5-|-3-3-----3-3-----|
|-8-------------------|-----------------|
|
| E E E E +E  E E E     E E E E E E E E
|---------------------|-----------------|
|---------------------|-----------------|
|---------------------|-----------------|
|-2-2-4-5-(5)-5-5-6---|-7-7-7-6-5-5-5-5-|


  E E E E  E  E E S S   E E E E E E E E
|-5-------------------|-----------------|
|---------------------|-----------------|
|---3-3-3--3--3-3-3---|-3-3-3-3-3-3-3-3-|
|-----0-0-------0-----|-----0-0-----0---|
|---3---------3-----5-|-3-3-----3-3-----|
|-8-------------------|-----------------|
|
| E E E E +E  E E E     E E E E E E E E
|---------------------|-----------------|
|---------------------|-----------------|
|---------------------|-----------------|
|-2-2-4-5-(5)-5-5-6---|-7-7-7-6-5-5-5-5-|


  E E E E  E  E E S S   E E E E E E E E
|-5-------------------|-----------------|
|---------------------|-----------------|
|---3-3-3--3--3-3-3---|-3-3-3-3-3-3-3-3-|
|-----0-0-------0-----|-----0-0-----0---|
|---3---------3-----5-|-3-3-----3-3-----|
|-8-------------------|-----------------|
|
| E E E E +E  E E E     E E E E E E E E
|---------------------|-----------------|
|---------------------|-----------------|
|---------------------|-----------------|
|-2-2-4-5-(5)-5-5-6---|-7-7-7-6-5-5-5-5-|


  E E E E  E  E E S S   E E E E E E E E
|-5-------------------|-----------------|
|---------------------|-----------------|
|---3-3-3--3--3-3-3---|-3-3-3-3-3-3-3-3-|
|-----0-0-------0-----|-----0-0-----0---|
|---3---------3-----5-|-3-3-----3-3-----|
|-8-------------------|-----------------|
|
| E E E E +E  E E E     E E E E E E E E
|---------------------|-----------------|
|---------------------|-----------------|
|---------------------|-----------------|
|-2-2-4-5-(5)-5-5-6---|-7-7-7-6-5-5-5-5-|


  E E E E  E  E E S S   E E E E E E S S S S
|-5-------------------|---------------------|
|---------------------|---------------------|
|---3-3-3--3--3-3-3---|-3-3-3-3-3-3---------|
|-----0-0-------0-----|-----0-0-------------|
|---3---------3-----5-|-3-3-----3-3-5-5-5-5-|
|-8-------------------|---------------------|
|
| E E E E +E  E E E     E E E E E E E   E
|---------------------|---------------------|
|---------------------|---------------------|
|---------------------|---------------------|
|-2-2-4-5-(5)-5-5-6---|-7-7-7-6-5-5-5---5---|


  E E E S S E E E S S   E E E E E E E E
|---------------------|-----------------|
|---------------------|-----------------|
|---------------------|-----------------|
|-5-5---7-5-5-5---7-5-|-5-5---5-5-----7-|
|-----5---------5-----|-----5-----5-5---|
|---------------------|---------------8-|
|
| E E E E   E E E E     E E E E E E E E
|---------------------|-----------------|
|---------------------|-----------------|
|---------------------|-----------------|
|-7-7-7-7---7-7-7-7---|-7-7-7-7-7-7-7-7-|


   Q   E E E E  E E    E  E  E E  E E  E  S  S
|-------------------|---------------------------|
|-10----------------|---------------------------|
|-------------------|---------------------------|
|------8---8----8---|--8-----8----8----8--------|
|-------------------|--------------------10-10--|
|--8--10---8-8-10-8-|-----8-10-8-10-8-10--------|
|
|  Q   Q   E E  E E   +E  E  E E  E E  E  E
|-------------------|---------------------------|
|-------------------|----------3----------------|
|--5---5---5-5--5-5-|-(5)-3--5----5-3--2--0-----|
|-------------------|---------------------------|


   E  E  E  S  S  E  E  E  S  S    E  E  E  E  E  E  E E
|-------------------------------|------------------------|
|-------------------------------|------------------------|
|-------------------------------|------------------------|
|-------------------------------|----------------------7-|
|-10-10----12-10-10-10----12-10-|-10-10----10-10---------|
|-------10-------------10-------|-------10-------10-10-8-|
|
|  E  E  E  E     E  E  E  E       E  E  E  E  E  E  E E
|-------------------------------|------------------------|
|-------------------------------|------------------------|
|--2--2--2--2-----2--2--2--2----|--2--2--2--2--2--2--2-2-|
|-------------------------------|------------------------|


   Q    E E E E  E  E   E E  E  E  E E  E  S  S
|---------------------|--------------------------|
|-10------------------|--------------------------|
|---------------------|--------------------------|
|-------8---8----8----|-8----8-----8----8--------|
|---------------------|-------------------10-10--|
|--8---10---8-8-10--8-|---8-10--8-10-8-10--------|
|
|  Q.     E E E +E  E   E E +E  E  E E  E  E
|---------------------|--------------------------|
|--0------0-0---------|--------------------------|
|-------------------5-|-5-------5--5-3--5--3-----|
|-------------3-(3)---|---3-(3)------------------|


   E  E  E  S  S  E  E  E  S  S    E  E  E  E  E  E  E E
|-------------------------------|------------------------|
|-------------------------------|------------------------|
|-------------------------------|------------------------|
|-------------------------------|----------------------7-|
|-10-10----12-10-10-10----12-10-|-10-10----10-10---------|
|-------10-------------10-------|-------10-------10-10-8-|
|
|  E  E  E  E     E  E  E  E       E  E  E  E  E  E  E E
|-------------------------------|------------------------|
|-------------------------------|------------------------|
|--2--2--2--2-----2--2--2--2----|--2--2--2--2--2--2--2-2-|
|-------------------------------|------------------------|


   Q   E E E E  E E    E  E  E E  E E  E  S  S
|-------------------|---------------------------|
|-10----------------|---------------------------|
|-------------------|---------------------------|
|------8---8----8---|--8-----8----8----8--------|
|-------------------|--------------------10-10--|
|--8--10---8-8-10-8-|-----8-10-8-10-8-10--------|
|
|  Q   Q   E E  E E   +E  E  E E  E E  E  E
|-------------------|---------------------------|
|--0---0---0-0--0-0-|-(0)------3----------------|
|-------------------|-----3--5----5-3--2--0-----|
|-------------------|---------------------------|


   E  E  E  S  S  E  E  E  S  S    E  E  E  E  E  E  E E
|-------------------------------|------------------------|
|-------------------------------|------------------------|
|-------------------------------|------------------------|
|-------------------------------|----------------------7-|
|-10-10----12-10-10-10----12-10-|-10-10----10-10---------|
|-------10-------------10-------|-------10-------10-10-8-|
|
|  E  E  E  E     E  E  E  E       E  E  E  E  E  E  E E
|-------------------------------|------------------------|
|-------------------------------|------------------------|
|--2--2--2--2-----2--2--2--2----|--2--2--2--2--2--2--2-2-|
|-------------------------------|------------------------|


   Q   E E E E  E E    E  E E E E E E S S
|-------------------|----------------------|
|-10----------------|----------------------|
|-------------------|----------------------|
|------8---8----8---|--8-------------------|
|-------------------|-----5-5-5-5-5-5-5-5--|
|--8--10---8-8-10-8-|--8--8-8--------------|
|
|  Q   Q   E E  E E   +E  E E E E E E E
|-------------------|----------------------|
|--0---0---0-0--0-0-|-(0)-0-0-0-0-0-0-0----|
|-------------------|----------------------|
|-------------------|----------------------|


  E E E E  E  E E S S   E E E E E E E E
|-5-------------------|-----------------|
|---------------------|-----------------|
|---3-3-3--3--3-3-3---|-3-3-3-3-3-3-3-3-|
|-----0-0-------0-----|-----0-0-----0---|
|---3---------3-----5-|-3-3-----3-3-----|
|-8-------------------|-----------------|
|
| E E E E +E  E E E     E E E E E E E E
|---------------------|-----------------|
|---------------------|-----------------|
|---------------------|-----------------|
|-2-2-4-5-(5)-5-5-6---|-7-7-7-6-5-5-5-5-|


  E E E E  E  E E S S   E E E E E E E E
|-5-------------------|-----------------|
|---------------------|-----------------|
|---3-3-3--3--3-3-3---|-3-3-3-3-3-3-3-3-|
|-----0-0-------0-----|-----0-0-----0---|
|---3---------3-----5-|-3-3-----3-3-----|
|-8-------------------|-----------------|
|
| E E E E +E  E E E     E E E E E E E E
|---------------------|-----------------|
|---------------------|-----------------|
|---------------------|-----------------|
|-2-2-4-5-(5)-5-5-6---|-7-7-7-6-5-5-5-5-|


  E E E E  E  E E S S   E E E E E E E E
|-5-------------------|-----------------|
|---------------------|-----------------|
|---3-3-3--3--3-3-3---|-3-3-3-3-3-3-3-3-|
|-----0-0-------0-----|-----0-0-----0---|
|---3---------3-----5-|-3-3-----3-3-----|
|-8-------------------|-----------------|
|
| E E E E +E  E E E     E E E E E E E E
|---------------------|-----------------|
|---------------------|-----------------|
|---------------------|-----------------|
|-2-2-4-5-(5)-5-5-6---|-7-7-7-6-5-5-5-5-|


  E E E E  E  E E S S   E E E E E E E E
|-5-------------------|-----------------|
|---------------------|-----------------|
|---3-3-3--3--3-3-3---|-3-3-3-3-3-3-3-3-|
|-----0-0-------0-----|-----0-0-----0---|
|---3---------3-----5-|-3-3-----3-3-----|
|-8-------------------|-----------------|
|
| E E E E +E  E E E     E E E E E E E E
|---------------------|-----------------|
|---------------------|-----------------|
|---------------------|-----------------|
|-2-2-4-5-(5)-5-5-6---|-7-7-7-6-5-5-5-5-|


  E E E E  E  E E S S   E E E E E E E E
|-5-------------------|-----------------|
|---------------------|-----------------|
|---3-3-3--3--3-3-3---|-3-3-3-3-3-3-3-3-|
|-----0-0-------0-----|-----0-0-----0---|
|---3---------3-----5-|-3-3-----3-3-----|
|-8-------------------|-----------------|
|
| E E E E +E  E E E     E E E E E E E E
|---------------------|-----------------|
|---------------------|-----------------|
|---------------------|-----------------|
|-2-2-4-5-(5)-5-5-6---|-7-7-7-6-5-5-5-5-|


  E E E E  E  E E S S   E E E E E E E E
|-5-------------------|-----------------|
|---------------------|-----------------|
|---3-3-3--3--3-3-3---|-3-3-3-3-3-3-3-3-|
|-----0-0-------0-----|-----0-0-----0---|
|---3---------3-----5-|-3-3-----3-3-----|
|-8-------------------|-----------------|
|
| E E E E +E  E E E     E E E E E E E E
|---------------------|-----------------|
|---------------------|-----------------|
|---------------------|-----------------|
|-2-2-4-5-(5)-5-5-6---|-7-7-7-6-5-5-5-5-|


  E E E E  E  E E S S   E E E E E E E E
|-5-------------------|-----------------|
|---------------------|-----------------|
|---3-3-3--3--3-3-3---|-3-3-3-3-3-3-3-3-|
|-----0-0-------0-----|-----0-0-----0---|
|---3---------3-----5-|-3-3-----3-3-----|
|-8-------------------|-----------------|
|
| E E E E +E  E E E     E E E E E E E E
|---------------------|-----------------|
|---------------------|-----------------|
|---------------------|-----------------|
|-2-2-4-5-(5)-5-5-6---|-7-7-7-6-5-5-5-5-|


  E E E E  E  E E S S   E E E E E E S S S S
|-5-------------------|---------------------|
|---------------------|---------------------|
|---3-3-3--3--3-3-3---|-3-3-3-3-3-3---------|
|-----0-0-------0-----|-----0-0-------------|
|---3---------3-----5-|-3-3-----3-3-5-5-5-5-|
|-8-------------------|---------------------|
|
| E E E E +E  E E E     E E E E E E E   E
|---------------------|---------------------|
|---------------------|---------------------|
|---------------------|---------------------|
|-2-2-4-5-(5)-5-5-6---|-7-7-7-6-5-5-5---5---|


  Q=137
  Q  Q  Q  Q    Q  Q  Q  Q    Q  Q  Q  Q    Q  Q  Q  Q
|-5-----------|-5-----------|-5-----------|-5-----------|
|-------------|-------------|-------------|-------------|
|-6--3--3--3--|-6--3--3--3--|-6--3--3--3--|-6--3--3--3--|
|-------------|-------------|-------------|-------------|
|-------------|-------------|-------------|-------------|
|-8-----------|-8-----------|-8-----------|-8-----------|
|
| W             W             W             W
|-------------|-------------|-------------|-------------|
|-------------|-------------|-------------|-------------|
|-------------|-------------|-------------|-------------|
|-2-----------|-2-----------|-2-----------|-2-----------|


  Q  Q  Q  Q    Q  Q  Q  Q    Q  Q  Q  Q    Q  Q  Q  Q
|-5-----------|-5-----------|-5-----------|-5-----------|
|-------------|-------------|-------------|-------------|
|-6--3--3--3--|-6--3--3--3--|-6--3--3--3--|-6--3--3--3--|
|-------------|-------------|-------------|-------------|
|-------------|-------------|-------------|-------------|
|-8-----------|-8-----------|-8-----------|-8-----------|
|
| W             W             W             W
|-------------|-------------|-------------|-------------|
|-------------|-------------|-------------|-------------|
|-------------|-------------|-------------|-------------|
|-2-----------|-2-----------|-2-----------|-2-----------|


  Q   Q   Q   Q     Q   Q   Q   Q
|-5---------------|-5---------------|
|-----------------|-----------------|
|-6---3---3---3---|-6---3---3---3---|
|-----------------|-----------------|
|-----------------|-----------------|
|-8---------------|-8---------------|
|
| E E E E E E E E   E E E E E E E E
|-----------------|-----------------|
|-----------------|-----------------|
|---------3-3-3-3-|-2-2-2-2-0-0-0-0-|
|-2-2-2-2---------|-----------------|


  Q   Q   Q   Q     Q   Q   S S S S S S S S
|-5---------------|-5-----------------------|
|-----------------|-------------------------|
|-6---3---3---3---|-6---3---3-2-2-2---0-0-0-|
|-----------------|---------7-------0-------|
|-----------------|-------------------------|
|-8---------------|-8-----------------------|
|
| E E E E E E E E   E E E E E   E   E   E
|-----------------|-------------------------|
|-----------------|-------------------------|
|---------3-3-3-3-|-2-2-2-2-0---0---0---0---|
|-2-2-2-2---------|-------------------------|


  Q=143
  Q  E.   S E E E S S   E E E E  E  S  S S S S S    Q  E.   S E E E S S
|-5-------------------|--------------------------|----------------------|
|---------------------|--------------------------|-10-------------------|
|----6------6---6-----|-6---6--------------------|-----6------6---6-----|
|----0----------0-----|-----0---11-------9-9-7-7-|-----0----------0-----|
|---------5---------5-|--------------------------|----------5---------5-|
|-8---------8-8-------|-8-8---8--8-10-10---------|--8---------8-8-------|
|
| Q  E  E   E E E E     E E E E  E  E    E   E      Q  E  E   E E E E
|---------------------|--------------------------|----------------------|
|---------------------|--------------------------|----------------------|
|-----------3-3-3-3---|-2-2-2-2--0--0----0---0---|------------3-3-3-3---|
|-2--2--2-------------|--------------------------|--2--2--2-------------|


  E E E S S E S S E S S   Q  E.   S E E E S S   E E E E  E  S  S S S S S
|-----------------------|-5-------------------|---------------------------|
|-----------------------|---------------------|---------------------------|
|-6---6-----6-----6-----|----6------6---6-----|-6---6---------------------|
|-----0-----------------|----0----------0-----|-----0---11-------9-9-7-7--|
|-------5-5---5-5---5-5-|---------5---------5-|---------------------------|
|-8-8-------8-----------|-8---------8-8-------|-8-8---8--8-10-10----------|
|
| E E E E   E E   E E     Q  E  E   E E E E     E E E E  E  E    E   E
|-----------------------|---------------------|---------------------------|
|-----------------------|---------------------|---------------------------|
|-2-2-2-2---0-0---0-0---|-----------3-3-3-3---|-2-2-2-2--0--0----0---0----|
|-----------------------|-2--2--2-------------|---------------------------|


   Q  E.   S E E E S S   E E E S S E S S E S S   Q  E.   S E E E S S
|----------------------|-----------------------|-5-------------------|
|-10-------------------|-----------------------|---------------------|
|-----6------6---6-----|-6---6-----6-----6-----|----6------6---6-----|
|-----0----------0-----|-----0-----------------|----0----------0-----|
|----------5---------5-|-------5-5---5-5---5-5-|---------5---------5-|
|--8---------8-8-------|-8-8-------8-----------|-8---------8-8-------|
|
|  Q  E  E   E E E E     E E E E   E E   E E     Q  E  E   E E E E
|----------------------|-----------------------|---------------------|
|----------------------|-----------------------|---------------------|
|------------3-3-3-3---|-2-2-2-2---0-0---0-0---|-----------3-3-3-3---|
|--2--2--2-------------|-----------------------|-2--2--2-------------|


  E E E E  E  S  S S S S S    Q  E.   S E E E S S   E E E S S E S S E S S
|--------------------------|----------------------|------------------------|
|--------------------------|-10-------------------|------------------------|
|-6---6--------------------|-----6------6---6-----|-6---6-----6-----6------|
|-----0---11-------9-9-7-7-|-----0----------0-----|-----0------------------|
|--------------------------|----------5---------5-|-------5-5---5-5---5-5--|
|-8-8---8--8-10-10---------|--8---------8-8-------|-8-8-------8------------|
|
| E E E E  E  E    E   E      Q  E  E   E E E E     E E E E   E E   E E
|--------------------------|----------------------|------------------------|
|--------------------------|----------------------|------------------------|
|-2-2-2-2--0--0----0---0---|------------3-3-3-3---|-2-2-2-2---0-0---0-0----|
|--------------------------|--2--2--2-------------|------------------------|


  Q  E.   S E E E S S   E E E E  E  S  S S S S S    Q  E.   S E E E S S
|-5-------------------|--------------------------|----------------------|
|---------------------|--------------------------|-10-------------------|
|----6------6---6-----|-6---6--------------------|-----6------6---6-----|
|----0----------0-----|-----0---11-------9-9-7-7-|-----0----------0-----|
|---------5---------5-|--------------------------|----------5---------5-|
|-8---------8-8-------|-8-8---8--8-10-10---------|--8---------8-8-------|
|
| Q  E  E   E E E E     E E E E  E  E    E   E      Q  E  E   E E E E
|---------------------|--------------------------|----------------------|
|---------------------|--------------------------|----------------------|
|-----------3-3-3-3---|-2-2-2-2--0--0----0---0---|------------3-3-3-3---|
|-2--2--2-------------|--------------------------|--2--2--2-------------|


                          Q=137
  E E E S S E S S E S S   Q  Q  Q  Q    Q  Q  Q  Q    Q  Q  Q  Q
|-----------------------|-5-----------|-5-----------|-5------------|
|-----------------------|-------------|-------------|--------------|
|-6---6-----6-----6-----|-6--3--3--3--|-6--3--3--3--|-6--3--3--3---|
|-----0-----------------|-------------|-------------|--------------|
|-------5-5---5-5---5-5-|-------------|-------------|--------------|
|-8-8-------8-----------|-8-----------|-8-----------|-8------------|
|
| E E E E   E E   E E     W             W             W
|-----------------------|-------------|-------------|--------------|
|-----------------------|-------------|-------------|--------------|
|-2-2-2-2---0-0---0-0---|-------------|-------------|--------------|
|-----------------------|-2-----------|-2-----------|-2------------|


  Q  Q  Q  Q    Q  Q  Q  Q    Q  Q  Q  Q    Q  Q  Q  Q
|-5-----------|-5-----------|-5-----------|-5-----------|
|-------------|-------------|-------------|-------------|
|-6--3--3--3--|-6--3--3--3--|-6--3--3--3--|-6--3--3--3--|
|-------------|-------------|-------------|-------------|
|-------------|-------------|-------------|-------------|
|-8-----------|-8-----------|-8-----------|-8-----------|
|
| W             W             W             W
|-------------|-------------|-------------|-------------|
|-------------|-------------|-------------|-------------|
|-------------|-------------|-------------|-------------|
|-2-----------|-2-----------|-2-----------|-2-----------|


  Q=110
  Q  Q  Q.   E    Q   Q  +H        W            W
|-5------------|------5--(5)----|------------|--------*|
|--------------|----------------|------------|--------*|
|-6--3--3----3-|------6--(6)----|------------|--------*|
|--------------|----------------|------------|--------*|
|--------------|----------------|------------|--------*|
|-8------------|------8--(8)----|------------|--------*|
|
| W              +Q   Q  +H       +W           +W
|--------------|----------------|------------|--------*|
|--------------|----------------|------------|--------*|
|--------------|----------------|------------|--------*|
|-2------------|-(2)--2--(2)----|-(2)--------|-(2)----*|



Duration Legend
---------------
W - whole; H - half; Q - quarter; E - 8th; S - 16th; T - 32nd; X - 64th; a - acciaccatura
+ - note tied to previous; . - note dotted; .. - note double dotted
Uncapitalized letters represent notes that are staccato (1/2 duration)
Irregular groupings are notated above the duration line
Duration letters will always appear directly above the note/fret number it represents the
duration for.  Duration letters with no fret number below them represent rests.  Multi-
bar rests are notated in the form Wxn, where n is the number of bars to rest for.  Low
melody durations appear below the staff

Tablature Legend
----------------
 h   - hammer-on
 p   - pull-off
 b   - bend
 pb  - pre-bend
 r   - bend release (if no number after the r, then release immediately)
 /\  - slide into or out of (from/to "nowhere")
 s   - legato slide
 S   - shift slide
 - natural harmonic
[n]  - artificial harmonic
n(n) - tapped harmonic
 ~   - vibrato
 tr  - trill
 T   - tap
 TP  - trem. picking
 PM  - palm muting
\n/  - tremolo bar dip; n = amount to dip
 \n  - tremolo bar down
 n/  - tremolo bar up
/n\  - tremolo bar inverted dip
 =   - hold bend; also acts as connecting device for hammers/pulls
 <> - volume swell (louder/softer)
 x   - on rhythm slash represents muted slash
 o   - on rhythm slash represents single note slash

Misc Legend
-----------
 |  - bar
||  - double bar
||o - repeat start
o|| - repeat end
*|  - double bar (ending)
 :  - bar (freetime)
 $  - Segno
 &  - Coda
Tempo markers -  = BPM(8/16=s8/s16), where s8 = swing 8ths, s16 = swing 16ths





Comments


Popular Nirvana tabs & chords
Floyd The Barber 4 Bass Tabs
Jesus Don't Want Me For A Sunbeam 2 Bass Tabs
Oh The Guilt Bass Tabs
Rape Me 1 Drum Tabs
About A Girl 7 Tabs
Jesus Dont Want Me For A Tabs
Nirvana Songbook 1 Tabs
Pennyroyal Tea 1 Tabs
Where Did You Sleep Lastnight The Right Way Tabs
Pennyroyal Tea Ukulele


Song lyrics



↑ Back to top | Tablatures and chords are parodies/interpretations of the original songs. You may use it for private study, scholarship, research or language learning purposes only
© 2014 AZChords.com Contact us | Privacy policy | DMCA | Add/correct tabs | Request tabs | Top 50 tabs