» » »

Nirvana, All Apologies Tabs (ver.3)

Artists:  A B C D E F G H I J K L M N O P Q R S T U V W X Y Z # 

All Apologies Tabs (ver.3)

Nirvana Tabs
Rating:
3/5 (10 votes)
All Apologies lessons Tabs too difficult? Try these video lessons and learn fast
                Nirvana:
All Apologies - In Utero


TUNING: Low/High Db Ab Db Gb Bb Eb

Eb ----------------------|----------------------|----------------------|-
Bb ----------------------|----------------------|----------------------|-
Gb ----------------------|----------------------|----------------------|-
Db ----------------------|----------12-12-9-10--|----------------------|-
Ab ---9-10-9-12-12-9-10--|---9-10-9-------------|---9-10-9-12-12-9-10--|-
Db -0--------------------|-0--------------------|-0--------------------|-


Eb ---------------------|-
Bb ---------------------|-
Gb ----------11-11-9----|-
Db ------------------12-|-
Ab ---9-10-9------------|-
Db -0-------------------|-

That's the main riff.. Then the Chorus (According to Billy):

Eb ----------------------------------------|-
Bb ----------------------------------------|-
Gb ----------------------------------------|-
Db -5-5-5--0-5-5-5--0-5-5-5--0-5-5-5--0--7-|-
Ab -5-5-5--0-5-5-5--0-5-5-5--0-5-5-5--0--7-|-
Db -5-5-5--0-5-5-5--0-5-5-5--0-5-5-5--0--7-|-

*****Then the Chorus (According to Pete) 

Eb ----------------------------------------|-
Bb ----------------------------------------|-
Gb --------------------------------------2-|-
Db -5-5-5--0-5-5-5--0-5-5-5--0-5-5-5--0--2-|-
Ab -5-5-5--0-5-5-5--0-5-5-5--0-5-5-5--0--0-|-
Db -5-5-5--0-5-5-5--0-5-5-5--0-5-5-5--0--0-|-

   In the sun ...                        Married, burried ....                
********************

Verse 1:
What else should I be
All apologies
What else should I say
Everyone is gay
What else could I write
I don't have the right
What else should I be
All apologies

In the sun
In the sun I feed as one
In the sun
In the sun

married
buried

Verse 2:
I wish I was like you
Easily amused
Find my nest of salt
Everything is my fault
I'll take all the blame
Aqur scafoam shame
Sunburn with freezeburn
Choking on the ashes of her enemy

Ending:

Oh no is all we are (?)
All in all we all are



---------------------------------------------------------------


>1/2 step down, dropped D tuning
>
>Eb|----------------------------------------------------------
>Bb|----------------------------------------------------------
>Gb|----------------------------------------------------------
>Db|-------------------------------------------12--12--10--9--
>Ab|-----9--10--9--12--12--10--9-----9--10--9-----------------
>Db|--0---------------------------0---------------------------
>
>
>Eb|----------------------------------------------------------
>Bb|----------------------------------------------------------
>Gb|-------------------------------------------11--11--9------
>Db|------------------------------------------------------12--
>Ab|-----9--10--9--12--12--10--9-----9--10--9-----------------
>Db|--0---------------------------0---------------------------  


All Apologies  by  Nirvana
--------------------------
(Normal tuning)

*
#
*
#
*
What else should I be
*
All apologies
*
What else should I say
*
Everyone is gay
*
What else could I write
*
I don't have the right
*
What else could I be
%
All apologies

F#
In the sun
In the sun I feel as one
In the sun
In the sun
G#sus4
I'm married
buried

*
I wish I was like you
#
Easily amused
*
Find my nest of salt
*
Everything is my fault
* $
I'll take all the blame
*
Aqua seafoam shame
* $
Sunburn with freezerburn
%(almost)
Choking on the ashes of her enemy

(Chorus)

*
#
All in all is all we are * # * # * # etc.

     |       |       |       |          |       |       |       |
* |----------------------------------|-----------------------------------|
  |----------------------------------|-----------------------------------|
  |----------------------------------|-----------------/6---6---4---3----|
  |------3---4---3--/6---6---4---3---|------3---4---3--------------------|
  |--4-------------------------------|--4--------------------------------|
  |----------------------------------|-----------------------------------|

   |       |       |       |          |       |       |       |
# |----------------------------------|-----------------------------------|
  |----------------------------------|-----------------/6---6---4---2----|
  |----------------------------------|-----------------------------------|
  |------3---4---3--/6---6---4---3---|------3---4---3--------------------|
  |--4-------------------------------|--4--------------------------------|
  |----------------------------------|-----------------------------------|

   |       |       |       |          |       |       |       |
% |----------------------------------|-----------------------------------|
  |----------------------------------|-------------------/6---6----------|
  |----------------------------------|-----------------------------------|
  |------3---4---3--/6---6---4---3---|------3---4---3--------------------|
  |--4-------------------------------|--4--------------------------------|
  |----------------------------------|-----------------------------------|


               |-----|-----|-----|-----|   
               |-----|-----|-----|-----|     Play this the last time
               |-----|-----|-----|-----|       
$ Cello bit:   |--9--|--6--|--9--|--11-| *2 |--9--|--6--|--3--|-----|
               |-----|-----|-----|-----|    |-----|-----|-----|--4--|
               |-----|-----|-----|-----|    
  	         >>> >>> >>> >>>   Volume Swells.  Turn volume knob off
		 		   hammer on note and turn volume on,
				   repeat with every note. Use distortion.
            
Submit corrections

comments powered by Disqus
↑ Back to top | Nirvana Tabs for All Apologies. Lyrics for acoustic guitar and electric guitar. Tablatures and chords are parodies/interpretations of the original songs. You may use it for private study, scholarship, research or language learning purposes only