>
 >
Revolve 1

Revolve 1 Guitar Tabs

Nine Days - Revolve 1 chords, tabs, tablatures, lyrics

Guitar lessons | Add/correct | Request | Top 50 tabs Artists:  A B C D E F G H I J K L M N O P Q R S T U V W X Y Z 0-9

Revolve 1 Guitar Tabs – Nine Days

CD, Sheet music, Poster

Do you like Revolve 1? Share with your friends now
Bass TabsTabsTabs v2
Ninedays: The Madding Crowd
"Revolve"
Standard Tuning (EADGBe)

This is such an awesome song! The other tab on this song is
great but I just added some bits to it to make it more complete.
To keep everything together and in order I've connected the 
staffs for each guitar, with Guitar 1 on top and Guitar 2 on
bottom. So two staffs connected by a line on the far left means
that both staffs are played at the same time by two different 
guitarists. I hope it isn't too confusing?! Anyhoo! Here it is...

Fade-In
   A4
|--------  For the fade-in, turn your volume all the way down
|--------   and give it a little tremelo if your amp has it. 
|--------   Strike this chord and slowly turn up the volume to
|--0~~~--   normal. Turn off the tremelo when you begin the
|--0~~~--   actual song. When done right, it sounds awesome!
|--------

Intro (0:09)
 A4                                              A
|---------------|---------------|---------------|----------------
|---------------|---------------|---------------|----------------
|7-7-7-7-7-7-7-7|7-7-7-7-7-7-7-7|7-7-7-7-7-7-7-7|6-6-6-6-6-6-6-6-
|0-0-0-0-0-0-0-0|0-0-0-0-0-0-0-0|0-0-0-0-0-0-0-0|0-0-0-0-0-0-0-0-
|0-0-0-0-0-0-0-0|0-0-0-0-0-0-0-0|0-0-0-0-0-0-0-0|0-0-0-0-0-0-0-0-
|---------------|---------------|---------------|----------------
|
|D5             B5              F#5             A5
|---------------|---------------|---------------|----------------
|---------------|---------------|---------------|----------------
|7-7-7-7-7-7-7-7|4-4-4-4-4-4-4-4|---------------|----------------
|7-7-7-7-7-7-7-7|4-4-4-4-4-4-4-4|4-4-4-4-4-4-4-4|7-7-7-7-7-7-7-7-
|5-5-5-5-5-5-5-5|2-2-2-2-2-2-2-2|4-4-4-4-4-4-4-4|7-7-7-7-7-7-7-7-
|---------------|---------------|2-2-2-2-2-2-2-2|5-5-5-5-5-5-5-5-
^--*play this part for both guitars twice*

|---------------|---------------|---------------|----------------
|---------------|---------------|---------------|----------------
|7---6---4---2--|0--------------|7---6---4---2--|0---------------
|---------------|----4---2---0--|---------------|----4---2---0---
|---------------|---------------|---------------|----------------
|---------------|---------------|---------------|----------------
|
|G5              A5              B5              A5
|---------------|---------------|---------------|----------------
|---------------|---------------|---------------|----------------
|---------------|---------------|---------------|----------------
|5-5-5-5-5-5-5-5|7-7-7-7-7-7-7-7|9-9-9-9-9-9-9-9|7-7-7-7-7-7-7-7-
|5-5-5-5-5-5-5-5|7-7-7-7-7-7-7-7|9-9-9-9-9-9-9-9|7-7-7-7-7-7-7-7-
|3-3-3-3-3-3-3-3|5-5-5-5-5-5-5-5|7-7-7-7-7-7-7-7|5-5-5-5-5-5-5-5-

|---------------|---------------|
|---------------|---------------|
|7---6---4---2--|0--------------|
|---------------|----4---2---0--|
|---------------|---------------|
|---------------|---------------|
|
|G5              A5
|---------------|---------------|
|---------------|---------------|
|---------------|---------------|
|5-5-5-5-5-5-5-5|7-7-7-7-7-7-7-7|
|5-5-5-5-5-5-5-5|7-7-7-7-7-7-7-7|
|3-3-3-3-3-3-3-3|5-5-5-5-5-5-5-5|

Verse 1(0:34)
 D
|---------------|---------------|---------------|----------------
|---------------|---------------|---------------|----------------
|7-x-x-x-7-x-7-7|7-x-x-x-7-x-7-7|7-x-x-x-7-x-7-7|7-x-x-x-7-x-7-7-
|0-x-x-x-0-x-0-0|0-x-x-x-0-x-0-0|0-x-x-x-0-x-0-0|0-x-x-x-0-x-0-0-
|---------------|---------------|---------------|----------------
|---------------|---------------|---------------|----------------
|
|G5              A5              B5              A5
|----------------------------------------------------------------
|----------------------------------------------------------------
|----------------------------------------------------------------
|5-5-x-x-x-5-x-5/7-7-x-x-x-7-x-7/9-9-x-x-x-9-x-9\7-7-x-x-x-7-x-7-
|5-5-x-x-x-5-x-5/7-7-x-x-x-7-x-7/9-9-x-x-x-9-x-9\7-7-x-x-x-7-x-7-
|3-3-x-x-x-3-x-3/5-5-x-x-x-5-x-5/7-7-x-x-x-7-x-7\5-5-x-x-x-5-x-5-

Pre-Chorus(0:56)
 G5              A5              F#5             G5
|---------------|---------------|---------------|----------------
|---------------|---------------|---------------|----------------
|---------------|---------------|---------------|----------------
|5-5-5-5-5-5-5-5|7-7-7-7-7-7-7-7|4-4-4-4-4-4-4-4|5-5-5-5-5-5-5-5-
|5-5-5-5-5-5-5-5|7-7-7-7-7-7-7-7|4-4-4-4-4-4-4-4|5-5-5-5-5-5-5-5-
|3-3-3-3-3-3-3-3|5-5-5-5-5-5-5-5|2-2-2-2-2-2-2-2|3-3-3-3-3-3-3-3-
|
|G5              A5              F#5             G5
|---------------|---------------|---------------|----------------
|---------------|---------------|---------------|----------------
|---------------|---------------|---------------|----------------
|5-5-5-5-5-5-5-5|7-7-7-7-7-7-7-7|4-4-4-4-4-4-4-4|5-5-5-5-5-5-5-5-
|5-5-5-5-5-5-5-5|7-7-7-7-7-7-7-7|4-4-4-4-4-4-4-4|5-5-5-5-5-5-5-5-
|3-3-3-3-3-3-3-3|5-5-5-5-5-5-5-5|2-2-2-2-2-2-2-2|3-3-3-3-3-3-3-3-


Chorus(1:03)
-same as intro for both guitars-
  (except you don't repeat the first part like in the intro)

Post-Chorus(1:22)
|3~-~-~-~-~-~-~-|10~-~---7~-~---|5~-~----3~-----|5----3----2~----
|---------------|---------------|---------------|----------------
|---------------|---------------|---------------|----------------
|---------------|---------------|---------------|----------------
|---------------|---------------|---------------|----------------
|---------------|---------------|---------------|----------------
|       Guitar 1 uses a chorus pedal
|G5                              D5              A5
|---------------|---------------|---------------|----------------
|---------------|---------------|---------------|----------------
|---------------|---------------|7-7-7-7-7-7-7-7|----------------
|5-5-5-5-5-5-5-5|5-5-5-5-5-5-5-5|7-7-7-7-7-7-7-7|7-7-7-7-7-7-7-7-
|5-5-5-5-5-5-5-5|5-5-5-5-5-5-5-5|5-5-5-5-5-5-5-5|7-7-7-7-7-7-7-7-
|3-3-3-3-3-3-3-3|3-3-3-3-3-3-3-3|---------------|5-5-5-5-5-5-5-5-
^--*play this part for both guitars twice*

|10--9---7---5--|3---2---0------|
|---------------|------------3~-|
|---------------|---------------|
|---------------|---------------|
|---------------|---------------|
|---------------|---------------|
|
|G5              A5
|---------------|---------------|
|---------------|---------------|
|---------------|---------------|
|5-5-5-5-5-5-5-5|7-7-7-7-7-7-7-7|
|5-5-5-5-5-5-5-5|7-7-7-7-7-7-7-7|
|3-3-3-3-3-3-3-3|5-5-5-5-5-5-5-5|


Verse2, Pre-Chorus, Chorus
-same as above-

Bridge(2:26)
 *               *               *               *
|---------------|---------------|---------------|----------------
|---------------|---------------|10--------8--7-|-----------7--8-
|7--------------|9----------7--9|---------------|9---------------
|---------------|---------------|---------------|----------------
|---------------|---------------|---------------|----------------
|---------------|---------------|---------------|----------------
|    Piano transcribed for Guitar 1 (clean)   
|D4              E4              F#4             E4 
|----------------------------------------------------------------
|----------------------------------------------------------------
|----------------------------------------------------------------
|5--------------/7-------------7/9-------------9\7---------------
|5--------------/7-------------7/9-------------9\7---------------
|----------------------------------------------------------------
^    Guitar 2 play softly
^--*play this part for both guitars twice*

Pre-Chorus(2:46)
 G5              A5              F#5             G5
|---------------|---------------|---------------|----------------
|---------------|---------------|---------------|----------------
|---------------|---------------|---------------|----------------
|5-5-5-5-5-5-5-5|7-7-7-7-7-7-7-7|4-4-4-4-4-4-4-4|5-5-------------
|5-5-5-5-5-5-5-5|7-7-7-7-7-7-7-7|4-4-4-4-4-4-4-4|5-5-------------
|3-3-3-3-3-3-3-3|5-5-5-5-5-5-5-5|2-2-2-2-2-2-2-2|3-3-------------
|
|G5              A5              F#5             G5
|---------------|---------------|---------------|----------------
|---------------|---------------|---------------|----------------
|---------------|---------------|---------------|----------------
|5-5-5-5-5-5-5-5|7-7-7-7-7-7-7-7|4-4-4-4-4-4-4-4|5-5-------------
|5-5-5-5-5-5-5-5|7-7-7-7-7-7-7-7|4-4-4-4-4-4-4-4|5-5-------------
|3-3-3-3-3-3-3-3|5-5-5-5-5-5-5-5|2-2-2-2-2-2-2-2|3-3-------------


Last Chorus(2:55)
-play the first six measures of the chorus,then play all of it-

Outro(3:24)
 D4                                              D(no 5th)
|3-3-3-3-3-3-3-3|3-3-3-3-3-3-3-3|3-3-3-3-3-3-3-3|2-2-2-2-2-2-2-2-
|3-3-3-3-3-3-3-3|3-3-3-3-3-3-3-3|3-3-3-3-3-3-3-3|3-3-3-3-3-3-3-3-
|---------------|---------------|---------------|----------------
|---------------|---------------|---------------|----------------
|---------------|---------------|---------------|----------------
|---------------|---------------|---------------|----------------
|       Guitar 1 uses a chorus pedal
|D5             B5              F#5             A5
|---------------|---------------|---------------|----------------
|---------------|---------------|---------------|----------------
|7-7-7-7-7-7-7-7|4-4-4-4-4-4-4-4|---------------|----------------
|7-7-7-7-7-7-7-7|4-4-4-4-4-4-4-4|4-4-4-4-4-4-4-4|7-7-7-7-7-7-7-7-
|5-5-5-5-5-5-5-5|2-2-2-2-2-2-2-2|4-4-4-4-4-4-4-4|7-7-7-7-7-7-7-7-
|---------------|---------------|2-2-2-2-2-2-2-2|5-5-5-5-5-5-5-5-
^--*play this part for both guitars twice*

|10--9---7---5--|3---2---0------|10--9---7---5--|2~-------------
|---------------|------------3~-|---------------|---------------
|---------------|---------------|---------------|---------------
|---------------|---------------|---------------|---------------
|---------------|---------------|---------------|---------------
|---------------|---------------|---------------|---------------
|
|G5              A5              B5              A5
|---------------|---------------|---------------|----------------
|---------------|---------------|---------------|----------------
|---------------|---------------|---------------|----------------
|5-5-5-5-5-5-5-5|7-7-7-7-7-7-7-7|9-9-9-9-9-9-9-9|5~--------------
|5-5-5-5-5-5-5-5|7-7-7-7-7-7-7-7|9-9-9-9-9-9-9-9|5~--------------
|3-3-3-3-3-3-3-3|5-5-5-5-5-5-5-5|7-7-7-7-7-7-7-7|3~--------------





Comments


Popular Nine Days tabs & chords
17 And 33 Chords
Absolutely 1 Chords
Favourite Song Chords
So Far Away Chords
Things We Said Chords
Absolutely 5 Tabs
If I Am 2 Tabs
Absolutely Story Of A Girl Ukulele
Moment Ukulele
So Far Away Ukulele


Song lyrics



↑ Back to top | Tablatures and chords are parodies/interpretations of the original songs. You may use it for private study, scholarship, research or language learning purposes only
© 2014 AZChords.com Contact us | Privacy policy | DMCA | Add/correct tabs | Request tabs | Top 50 tabs