>
 >
Bitter

Bitter Guitar Tabs

Nine Days - Bitter chords, tabs, tablatures, lyrics

Guitar lessons | Add/correct | Request | Top 50 tabs Artists:  A B C D E F G H I J K L M N O P Q R S T U V W X Y Z 0-9

Bitter Guitar Tabs – Nine Days

CD, Sheet music, Poster

Do you like Bitter? Share with your friends now
ChordsTabsTabs v2Tabs v3Ukulele

1. Standard Tunning (E A D G B e )
2. Chords Used
   -----------

     G      A     A/D    A/Gb    D     Dsus2   Em

  e -3-    ---    -0-    -2-    -2-    -0-    -0-
  B -3-    -2-    -2-    -2-    -3-    -3-    -0-
  G -0-    -2-    -2-    -0-    -2-    -2-    -0-
  D -0-    -2-    -0-    ---    -0-    -4-    -2-
  A -2-	   ---    ---    ---    ---    ---    -2-
  E -3-    ---    ---    ---    ---    ---    ---

3. Tab Lecture
   -----------

	b: Let the note ring
	h: Hammer On


Intro:

e ||---2---2---2---2-|----2---2---2---2-|----2---2---2---2-|
B ||---3---3---3---3-|----2---2---2---2-|----3---3---3---3-|
G ||-----------------|------------------|--4---4---4---4---|
D ||-----0---0---0---|--0---0---0---0---|------------------|
A ||-----------------|------------------|------------------|
E ||-----------------|------------------|------------------|


e  |-----------------|------------------|------------------|
B  |---3---3---3---3-|----3---3---3---3-|----3---3---3---3-|
G  |---2---2---2---2-|----2---2---2---2-|----2---2---2---2-|
D  |-4---4---4---4---|--5---5---5---5---|--4---4---4---4---|
A  |-----------------|------------------|------------------|
E  |-----------------|------------------|------------------|


e  |-----------------|------------------||
B  |---2---2---2---2-|----2---2---2---2-||
G  |---2---2---2---2-|----2---2---2---2-||
D  |-2---2---2---2---|------------------||
A  |-----------------|--0---0---0---0---||
E  |-----------------|------------------||

Verse 1:

(Repeat intro's riff)
In my heart, sent my confession, my condolence,
You're indefinite, you're incompetent, inconsiderate.
You're so childish, I'll push you

		D		A/Gb
Out of what is real out of my head.
		    D		Dsus2			G
You can stick and drown at your residence of disappointments,
		D
Are of yours to come.
		A		A/D
So embrace them oh my shallow one today

CHORUS:

	G		     A/D		D		   A
e ||-3---3---3---3---|-0---0---0---0----|-2---2---2---2----|-0---0---0---0---|
B ||-3---3---3---3---|-2---2---2---2----|-3---3---3---3----|-2---2---2---2---|
G ||-----------------|------------------|------------------|-----------------|
D ||---0---0---0---0-|---0---0---0---0--|---0---0---0---0--|---2---2---2---2-|
A ||-----------------|------------------|------------------|-----------------|
E ||-----------------|------------------|------------------|-----------------|


	G		     A
e ||-3---3---3---3---|-0---0---0---0----||
B ||-3---3---3---3---|-2---2---2---2----||
G ||-----------------|------------------||
D ||---0---0---0---0-|---2---2---2---2--||
A ||-----------------|------------------||
E ||-----------------|------------------||

If I could change anything
Then I would change everything
These bitter days shall remain

Post-Chorus:


e ||-2---2---2---2---|-2---2---2---2---|-2---2---2---2---|-----------------|
B ||-3---3---3---3---|-2---2---2---2---|-3---3---3---3---|-3---3---3---3---|
G ||-----------------|-----------------|-----------------|-2---2---2---2---|
D ||---0---0---0---0-|---0---0---0---0-|---0---0---0---0-|---4---4---4---4-|
A ||-----------------|-----------------|-----------------|-----------------|
E ||-----------------|-----------------|-----------------|-----------------|


e  |-----------------|-----------------|-----------------|-----------------||
B  |-3---3---3---3---|-3---3---3---3---|-2---2---2---2---|-2---2---2---2---||
G  |-2---2---2---2---|-2---2---2---2---|-2---2---2---2---|-2---2---2---2---||
D  |---5---5---5---5-|---4---4---4---4-|---2---2---2---2-|---0---0---0---0-||
A  |-----------------|-----------------|-----------------|-----------------||
E  |-----------------|-----------------|-----------------|-----------------||


Verse 2:


	D		A/Gb
I don't ask for your forgiveness
		D		Dsus2
I don't care much for your actress.
		G			D
That's just you though shallow and selfish.
	A		A/D
So I go now oh my hollow one today.

CHORUS:

G		A/D
If I could change anything
D		A
Then I would change everything
G		A
These bitter days shall remain


Bridge:

G			D
So carry your blues behind your eyes,
G			Em
Don't flatter yourself I will survive.
G			D
So carry your blues your own denial.
G			Em
Your feathers are gone you'll never fly

CHORUS:

G		A/D
If I could change anything,
D		A
Then I would wipe the years away.
G		A/D
If I could change anything,
D		A
Then I would wipe the years away.
G		A/D
If I could change anything,
D		A
Then I would change everything.
G		A
These bitter days shall remain.


Post-Chorus:

e ||-2---2---2---2---|-2---2---2---2---|-2---2---2---2---|-----------------|
B ||-3---3---3---3---|-2---2---2---2---|-3---3---3---3---|-3---3---3---3---|
G ||-----------------|-----------------|-----------------|-2---2---2---2---|
D ||---0---0---0---0-|---0---0---0---0-|---0---0---0---0-|---4---4---4---4-|
A ||-----------------|-----------------|-----------------|-----------------|
E ||-----------------|-----------------|-----------------|-----------------|


e  |-----------------|-----------------|-----------------|-----------------||
B  |-3---3---3---3---|-3---3---3---3---|-2---2---2---2---|-2---2---2---2---||
G  |-2---2---2---2---|-2---2---2---2---|-2---2---2---2---|-2---2---2---2---||
D  |---5---5---5---5-|---4---4---4---4-|---2---2---2---2-|---0---0---0---0-||
A  |-----------------|-----------------|-----------------|-----------------||
E  |-----------------|-----------------|-----------------|-----------------||


Since you're gone I'm much better than you.


Bridge:

      G			D	  G            Em
e ||--3-----3----------2---2------- 3---3------0---0----||
B ||--3-------3----------3---3--------3---3------0---0--||
G ||--0---------0----2------------0----------0----------||
D ||--0------------0------------------------------------||
A ||----------------------------------------------------||
E ||----------------------------------------------------||

So carry your blues behind your eyes,
Don't flatter yourself I will survive.

G			D
So carry your blues your own denial.
G			Em
Your feathers are gone you'll never fly.


Solo:

e ||----------------------------------------||
B ||-----------------10b--10h12-10-10h12-10-||
G ||---7b---7-7-9-11------------------------||         x4
D ||----------------------------------------||
A ||----------------------------------------||
E ||----------------------------------------||


She'll never fly.


After the Solo you have to play the Chords used on the Bridge (G D G Em) 'til the end of 
song.





Comments


Popular Nine Days tabs & chords
Absolutely Chords
Absolutely 1 Chords
Absolutely 2 Chords
Back To Me Chords
Things We Said 1 Chords
Bitter 1 Tabs
Favorite Song Tabs
Wanna Be Tabs
Bitter Ukulele
Story Of A Girl Ukulele


Song lyrics



↑ Back to top | Tablatures and chords are parodies/interpretations of the original songs. You may use it for private study, scholarship, research or language learning purposes only
© 2014 AZChords.com Contact us | Privacy policy | DMCA | Add/correct tabs | Request tabs | Top 50 tabs