» » »

Million Miles Away Tabs (ver.1)

Artists:  A B C D E F G H I J K L M N O P Q R S T U V W X Y Z # 

Million Miles Away Tabs (ver.1)

Nikki Gil
Rating:
4/5 (1 vote)

Hard to play? Try these video lessons and learn fast.
                (Intro)
Standard tuning

E:---------0--------------0--------------0-------------2---------------------|
A:-----------0--------------0----------0---2---------2---2-------------------|
D:------2------2-------2------2------2-------------2-------------------------|
G:----2--------------2-------------2-------------0---------------------------|
B:--0------------------------------------------------------------------------|
E:-----------------2-------------0*------------------------------------------|




E:---------0--------------0--------------0-------------2-------2-------------|
A:-----------0--------------0----------0---2---------2---2-------------------|
D:------2------2-------2------2------2-------------2-----------2-------------|
G:----2--------------2-------------2-------------0-------------1*------------|
B:--0----------------------------------------------------------2-------------|
E:-----------------2-------------0*------------------------------------------|







(In the chord at the very end of the intro, i don't really like t play the 1 on the G string)
            
Hard to play? Try these video lessons and learn fast. | Correct




comments powered by Disqus
↑ Back to top | Tablatures and chords are parodies/interpretations of the original songs. You may use it for private study, scholarship, research or language learning purposes only