» » »

Nick Jonas And The Administration, Vesper's Goodbye Tabs (ver.1)

Artists:  A B C D E F G H I J K L M N O P Q R S T U V W X Y Z # 

Vesper's Goodbye Tabs (ver.1)

Nick Jonas And The Administration Tabs
 Rating:
4/5 (4 votes)
Vesper's Goodbye lessons Tabs too difficult? Try these video lessons and learn fast
1
                             Vespers Goodbye - Nick Jonas and the Administration

Spent ages tabbing this out as I wanted it to be exactly like the piano.
I was supposed to upload this months ago, but I completely forgot.
Leave a comment, if you have any corrections :D

***NOTE: This song is in Drop D tuning!***

Intro:
e|--------------|
B|--7~--5~--3~--|
G|--8~--4~--2~--|
D|--9~--2~--0~--| x2
A|--x---x---x---|
D|--9~--2~--0~--|

Verse:
e|--------------|
B|--7~--5~--3~--|
G|--8~--4~--2~--|
D|--9~--2~--0~--| x8
A|--x---x---x---|
D|--9~--2~--0~--|

Chorus:
e|-------------------------------|
B|--7~--9~---2~--5~--3~--7~--5~--|
G|--8~--10~--3~--4~--2~--8~--4~--|
D|--9~--11~--4~--2~--0~--9~--2~--|
A|--x---x----x---x---x---x---x---|
D|--9~--11~--4~--2~--0~--9~--2~--|

Post-chorus:
e|--------------|
B|--7~--5~--3~--|
G|--8~--4~--2~--|
D|--9~--2~--0~--|
A|--x---x---x---|
D|--9~--2~--0~--|

Verse:
e|--------------|
B|--7~--5~--3~--|
G|--8~--4~--2~--|
D|--9~--2~--0~--| x8
A|--x---x---x---|
D|--9~--2~--0~--|

Chorus:
e|-------------------------------|
B|--7~--9~---2~--5~--3~--7~--5~--|
G|--8~--10~--3~--4~--2~--8~--4~--|
D|--9~--11~--4~--2~--0~--9~--2~--|
A|--x---x----x---x---x---x---x---|
D|--9~--11~--4~--2~--0~--9~--2~--|

Outro:
e|--------------|
B|--7~--5~--3~--|
G|--8~--4~--2~--|
D|--9~--2~--0~--| x4
A|--x---x---x---|
D|--9~--2~--0~--|
            
Submit corrections

comments powered by Disqus
↑ Back to top | Nick Jonas And The Administration Tabs for Vesper's Goodbye. Lyrics for acoustic guitar and electric guitar. 1 Tablatures and chords are parodies/interpretations of the original songs. You may use it for private study, scholarship, research or language learning purposes only