» » »

Nick Jonas And The Administration, In The End Tabs (ver.1)

Artists:  A B C D E F G H I J K L M N O P Q R S T U V W X Y Z # 

In The End Tabs (ver.1)

Nick Jonas And The Administration Tabs
 Rating:
4/5 (9 votes)
In The End lessons Tabs too difficult? Try these video lessons and learn fast
                ----------------------------------------------------------------------------
               In The End - Nick Jonas & The Administration
----------------------------------------------------------------------------

This is only what nick plays. Hope you like it :) And don't forget to rate and comment

INTRO
e|---------------------|
B|---------------------|
G|-4~---5~---4~--4-5~--|
D|---------------------|
A|---------------------|
E|-5~---5~---5~--5-5~--|


VERSE
e|-------------------|
B|-------------------|
G|-4~--5~----4~--5~--|
D|-------------------|  x2
A|-------------------|
E|-5~--5~----5~--5~--|


CHORUS
e|------------------------|
B|------------------------|
G|-5~--7~--4~-5~--5~--7~--|
D|------------------------|
A|-3~--5~---------3~--5~--|
E|---------5~-5~----------|

e|------------------|
B|------------------|
G|-4~--4-5~----2-1--|
D|------------------| x3
A|-------------3-2--|
E|-5~--5-5~----1-0--|

e|-------|
B|-------|
G|-5-4-2-|
D|-------|
A|-7-5-3-|
E|-5-3-1-|

e|---------|
B|---------|
G|-7~--4~--|
D|---------|
A|-5~--5~--|
E|-----3~--|



INTRO
e|---------------------|
B|---------------------|
G|-4~--4-5~---4~---5~--|
D|---------------------|
A|---------------------|
E|-5~--5-5~---5~---5~--|


VERSE 2
e|-------------------|
B|-------------------|
G|-4~--5~----4~--5~--|
D|-------------------|  x2
A|-------------------|
E|-5~--5~----5~--5~--|


CHORUS 3
e|------------------------|
B|------------------------|
G|-5~--7~--4~-5~--5~--7~--|
D|------------------------|
A|-3~--5~---------3~--5~--|
E|---------5~-5~----------|

e|------------------|
B|------------------|
G|-4~--4-5~----2-1--|
D|------------------| x3
A|-------------3-2--|
E|-5~--5-5~----1-0--|

e|-------|
B|-------|
G|-5-4-2-|
D|-------|
A|-7-5-3-|
E|-5-3-1-|

e|---------|
B|---------|
G|-7~--4~--|
D|---------|
A|-5~--5~--|
E|-----3~--|


INTRO
e|-------------------|
B|-------------------|
G|-4~--5~----4~--5~--|
D|-------------------|
A|-------------------|
E|-5~--5~----5~--5~--|


SOLO
e|-------------------|
B|-------------------|
G|-4~--5~----4~--5~--|
D|-------------------|  x2
A|-------------------|
E|-5~--5~----5~--5~--|

e|----------------|
B|----------------|
G|-5~--7~--4~-5~--|
D|----------------|  x2
A|-3~--5~---------|
E|---------5~-5~--|


VERSE 3
e|-------------------|
B|-------------------|
G|-4~--5~----4~--5~--|
D|-------------------|  x2
A|-------------------|
E|-5~--5~----5~--5~--|


CHORUS 3/OUTRO
e|-------|
B|-------|
G|--2-1--|
D|-------|
A|--3-2--|
E|--1-0--|

e|------------------|
B|------------------|
G|-4~--4-5~----2-1--|
D|------------------| x2
A|-------------3-2--|
E|-5~--5-5~----1-0--|

e|---------|
B|---------|
G|-5-4-2-1-|
D|---------|
A|-7-5-3-2-|
E|-5-3-1-0-|

e|----------|
B|----------|
G|-2--4---4-|
D|----------|
A|-3--5---5-|
E|-1--3---3-|

e|---------|
B|---------|
G|-5-4-2-1-|
D|---------|
A|-7-5-3-2-|
E|-5-3-1-0-|

e|----------5--|
B|----------5--|
G|-2--4-----5--|
D|----------7--|
A|-3--5-----7--|
E|-1--3-----5--|


Don't forget to rate :)
            
Submit corrections

comments powered by Disqus
↑ Back to top | Nick Jonas And The Administration Tabs for In The End. Lyrics for acoustic guitar and electric guitar. Tablatures and chords are parodies/interpretations of the original songs. You may use it for private study, scholarship, research or language learning purposes only