» » »

Longshot Tabs (ver.2)

Artists:  A B C D E F G H I J K L M N O P Q R S T U V W X Y Z # 

Longshot Tabs (ver.2)

Newton Faulkner
Rating:
0/5 (0 votes)

Hard to play? Try these video lessons and learn fast.
                xxxxxxxxxxxxxxxxxxxxxxxxxxxxxxxxxxxxxxxxxxxxxxxxxxxxxxxxxxxxxxxxxxxxxxxxxxxxxxxxxxxxxxxxxxxxxxxxxx
                                           L o n g   S h o t
                        W r i t e   I t   O n   Y o u r   S k i n   ( 2 0 1 2 )
                                     N E W T O N   F A U L K N E R
xxxxxxxxxxxxxxxxxxxxxxxxxxxxxxxxxxxxxxxxxxxxxxxxxxxxxxxxxxxxxxxxxxxxxxxxxxxxxxxxxxxxxxxxxxxxxxxxxx


                   + This file is the work of Jordan Lapping and represents his    +
                   + transcription of the song. You may only use this file for     +
                   + private study, scholarship, or research. The contents may not +
                   + permission. Thank you for understanding. Enjoy.               +
                   +---------------------------------------------------------------+



Tuning: DGDGDbDb, Capo 1st Fret


 INTRO:
    1  &  2  &  3  &  4  &  1  &  2  &  3  &  4  &
    Dm
Db]-------------------------------------------------|
Db]-------------------------------------------------|
G ]-------------------------------------------------|
D ]----6-----6-----6-----6-----6-----6-----6-----6--|
G ]-6-----6-----6-----6-----6-----6-----6-----6-----|
D ]-------------------------------------------------|



 VERSE 1:
    1  &  2  &  3  &  4  &  1  &  2  &  3  &  4  &  1  &  2  &  3  &  4  &  1  &  2  &  3  &  4  &
    Dm                                              G
Db]------------------------------------------------------------------------------------------------|
Db]------------------------------------------------------------------------------------------------|
G ]------------------------------------------------------------------------------------------------|
D ]----6-----6-----6-----6-----6-----6-----6-----6-------------------------------------------------|
G ]-6-----6-----6-----6-----6-----6-----6-----6--------6-----6-----6-----6-----6-----6-----6-----6-|
D ]-------------------------------------------------4-----4-----4-----4-----4-----4-----4-----4----|

  Dm
  It's all there underneath, everything we'll ever need
   G
  You and I
   Dm
  Look around and you will see broken minds and shattered dreams
   G
  Wasted time



 PRE-CHORUS 1:
    1  &  2  &  3  &  4  &  1  &  2  &  3  &  4  &  1  &  2  &  3  &  4  &  1  &  2  &  3  &  4  &
    Bb                      Csus2                   G
Db]------------------------------------------------------------------------------------------------|
Db]------------------------------------------------------------------------------------------------|
G ]------------------------------------------------------------------------------------------------|
D ]----2-----2-----2-----2-----4-----4-----4-----4-------------------------------------------------|
G ]-2-----2-----2-----2-----4-----4-----4-----4--------6-----6-----6-----6-----6-----6-----6-----6-|
D ]-------------------------------------------------4-----4-----4-----4-----4-----4-----4-----4----|

               Bb
  But I don't mind loosing sleep
             Csus2
  Squeezing through cracks in between
           G
  Day and night



 CHORUS 1:
    1  &  2  &  3  &  4  &  1  &  2  &  3  &  4  &
    Bb                Csus2 Dm                Csus2
Db]------------------------------------------------|
Db]------------------------------------------------|
G ]------------------------------------------------|
D ]----2-----2-----2-----4-----6-----6-----6-----4-| (x3)
G ]-2-----2-----2-----4-----6-----6-----6-----4----|
D ]------------------------------------------------|

    1  &  2  &  3  &  4  &  1  &  2  &  3  &  4  &  1  &  2  &  3  &  4  &
    Bb                Csus2 Dm
Db]------------------------------------------------------------------------|
Db]------------------------------------------------------------------------|
G ]------------------------------------------------------------------------|
D ]----2-----2-----2-----4-----6-----6-----6-----6-----6-----6-----6-----6-|
G ]-2-----2-----2-----4-----6-----6-----6-----6-----6-----6-----6-----6----|
D ]------------------------------------------------------------------------|

               Bb             Csus2       Dm
  It's such a long shot, everything that we've got
        Csus2     Bb                 Csus2   Dm
  Just living on this rock surrounded by the sea
  Csus2     Bb             Csus2    Dm
  With our shoes off, balancing on roof tops
               Csus2      Bb                Csus2    Dm
  You put your faith in preachers, I put my faith in me



 VERSE 2:
  Dm
  Given time, we could've seen all the things he could have been
   G
  If he tried
                 Dm
  But he settled for the English dream, bathed in mediocracy
            G
  Stood in line



 PRE-CHORUS 2:
    1  &  2  &  3  &  4  &  1  &  2  &  3  &  4  &  1  &  2  &  3  &  4  &  1  &  2  &  3  &  4  &
    Bb                      Csus2                   Gsus4                   G
Db]------------------------------------------------------------------------------------------------|
Db]------------------------------------------------------------------------------------------------|
G ]----------------------------------------------------4-----4-----4-----4-----3-----3-----3-----3-|
D ]----2-----2-----2-----2-----4-----4-----4-----4-----4-----4-----4-----4-----4-----4-----4-----4-|
G ]-2-----2-----2-----2-----4-----4-----4-----4----------------------------------------------------|
D ]-------------------------------------------------4-----4-----4-----4-----4-----4-----4-----4----|

            Bb
  But it's not enough for me
         Csus2
  I will kick and I will scream
           Gsus4     G
  Tell you why



 CHORUS 2:
    1  &  2  &  3  &  4  &  1  &  2  &  3  &  4  &
    Bb                Csus2 Dm                Csus2
Db]------------------------------------------------|
Db]------------------------------------------------|
G ]------------------------------------------------|
D ]----2-----2-----2-----4-----6-----6-----6-----4-| (x3)
G ]-2-----2-----2-----4-----6-----6-----6-----4----|
D ]------------------------------------------------|

    1  &  2  &  3  &  4  &  1  &  2  &  3  &  4  &
    Bb                Csus2 Dm
Db]------------------------------------------------|
Db]------------------------------------------------|
G ]------------------------------------------------|
D ]----2-----2-----2-----4-----6-----6-----6-----6-|
G ]-2-----2-----2-----4-----6-----6-----6-----6----|
D ]------------------------------------------------|

               Bb             Csus2       Dm
  It's such a long shot, everything that we've got
        Csus2     Bb                 Csus2   Dm
  Just living on this rock surrounded by the sea
  Csus2     Bb             Csus2    Dm
  With our shoes off, balancing on roof tops
               Csus2      Bb                Csus2    Dm
  You put your faith in preachers, I put my faith in me



 BRIDGE:
    1  &  2  &  3  &  4  &  1  &  2  &  3  &  4  &  1  &  2  &  3  &  4  &  1  &  2  &  3  &  4  &
    G                       Bb                      Dm                      Csus2
Db]------------------------------------------------------------------------------------------------|
Db]------------------------------------------------------------------------------------------------|
G ]------------------------------------------------------------------------------------------------|
D ]----------------------------2-----2-----2-----2-----6-----6-----6-----6-----4-----4-----4-----4-|
G ]----6-----6-----6-----6--2-----2-----2-----2-----6-----6-----6-----6-----4-----4-----4-----4----|
D ]-4-----4-----4-----4----------------------------------------------------------------------------|

    1  &  2  &  3  &  4  &  1  &  2  &  3  &  4  &
    Bb
Db]-------------------------------------------------|
Db]-------------------------------------------------|
G ]-------------------------------------------------|
D ]----2-----2-----2-----2-----2-----2--------------|
G ]-2-----2-----2-----2-----2-----2-----2-----------|
D ]-------------------------------------------------|

G                Bb              Dm      Csus2
  I don't wanna waste your time
G                Bb              Dm      Csus2     Bb
  I don't wanna waste your time



 CHORUS 3:
    1  &  2  &  3  &  4  &  1  &  2  &  3  &  4  &
    Bb                Csus2 Dm                Csus2
Db]-0--0--0--0--0--0--0--0--0--0--0--0--0--0--0--0-|
Db]-0--0--0--0--0--0--0--0--0--0--0--0--0--0--0--0-|
G ]------------------------------------------------|
D ]----2-----2-----2-----4-----6-----6-----6-----4-| (x3)
G ]-2-----2-----2-----4-----6-----6-----6-----4----|
D ]------------------------------------------------|

    1  &  2  &  3  &  4  &  1  &  2  &  3  &  4  &
    Bb                Csus2 Gsus4       G
Db]-0--0--0--0--0--0--0--0--0--0--0--0--0--0--0--0-|
Db]-0--0--0--0--0--0--0--0--0--0--0--0--0--0--0--0-|
G ]-------------------------4--4--4--4-----3-----3-|
D ]----2-----2-----2-----4-----4-----4-----4-----4-|
G ]-2-----2-----2-----4----------------------------|
D ]-------------------------4-----4-----4-----4----|

               Bb             Csus2       Dm
  It's such a long shot, everything that we've got
        Csus2     Bb                 Csus2   Dm
  Just living on this rock surrounded by the sea
  Csus2     Bb             Csus2    Dm
  With our shoes off, balancing on roof tops
               Csus2      Bb                Csus2    Gsus4     G
  You put your faith in preachers, I put my faith in me



 CHORUS 4:
    1  &  2  &  3  &  4  &  1  &  2  &  3  &  4  &
    Bb                Csus2 Dm                Csus2
Db]-0--0--0--0--0--0--0--0--0--0--0--0--0--0--0--0-|
Db]-0--0--0--0--0--0--0--0--0--0--0--0--0--0--0--0-|
G ]------------------------------------------------|
D ]----2-----2-----2-----4-----6-----6-----6-----4-| (x3)
G ]-2-----2-----2-----4-----6-----6-----6-----4----|
D ]------------------------------------------------|

    1  &  2  &  3  &  4  &  1  &  2  &  3  &  4  &
    Bb                Csus2 Dm
Db]-0--0--0--0--0--0--0--0--0--0--0--0--0--0--0--0-|
Db]-0--0--0--0--0--0--0--0--0--0--0--0--0--0--0--0-|
G ]------------------------------------------------|
D ]----2-----2-----2-----4-----6-----6-----6-----6-|
G ]-2-----2-----2-----4-----6-----6-----6-----6----|
D ]------------------------------------------------|

               Bb             Csus2       Dm
  It's such a long shot, everything that we've got
        Csus2     Bb                 Csus2   Dm
  Just living on this rock surrounded by the sea
  Csus2     Bb             Csus2    Dm
  With our shoes off, balancing on roof tops
               Csus2      Bb                Csus2    Dm
  You put your faith in preachers, I put my faith in me



 OUTRO:
    1  &  2  &  3  &  4  &  1  &  2  &  3  &  4  &  1
    Dm
Db]-0--0--0--0--0--0--0--0--0--0--0--0--0--0--0--0--0-|
Db]-0--0--0--0--0--0--0--0--0--0--0--0--0--0--0--0--0-|
G ]---------------------------------------------------|
D ]----6-----6-----6-----6-----6-----6-----6-----6----|
G ]-6-----6-----6-----6-----6-----6-----6-----6-----6-|
D ]---------------------------------------------------|





xxxxxxxxxxxxxxxxxxxxxxxxxxxxxxxxxxxxxxxxxxxxxxxxxxxxxxxxxxxxxxxxxxxxxxxxxxxxxxxxxxxxxxxxxxxxxxxxxxxx

xxxxxxxxxxxxxxxxxxxxxxxxxxxxxxxxxxxxxxxxxxxxxxxxxxxxxxxxxxxxxxxxxxxxxxxxxxxxxxxxxxxxxxxxxxxxxxxxxxxx
            
Hard to play? Try these video lessons and learn fast. | Correct




comments powered by Disqus
↑ Back to top | Tablatures and chords are parodies/interpretations of the original songs. You may use it for private study, scholarship, research or language learning purposes only