» » »

I'm Not Giving Up Yet Tabs (ver.3)

Artists:  A B C D E F G H I J K L M N O P Q R S T U V W X Y Z # 

I'm Not Giving Up Yet Tabs (ver.3)

Newton Faulkner
Rating:
4/5 (1 vote)

Hard to play? Try these video lessons and learn fast.
                -------------------------------------------------------------------------------
                 Im Not Giving Up Yet - Newton Faulkner
-------------------------------------------------------------------------------

Tuning: c#  (high string)
        G#
        F
        C#
        G#
        C#  



c#|---------------------------------------------------------------------------|
G#|----------------------------------------------------0----------0-----------|
F |----------------8-----------------------------0-----------0--------0-------|
C#|---------9-------------9------2h4p0----------------------------------------|
G#|----10------10-----10----10\----------0h2--2-----2-----2-----2---2---------|
C#|---------------------------------------------------------------------------|

c#|------------------+12--------------------------------+5--------------------|
G#|------------------------+12---------------------+5-------------------------|
F |------------8--------------------------------------------------------------|
C#|-------9--------------------------2h4p0------------------------------------|
G#|----10---10---10-----10------10\---------0h2--2----2-----------------------|
C#|---------------------------------------------------------------------------|

c#|----0h0--x-0----0000---0-0-0-0-0-0-0-0-0--0h0--x-0----0000-----------------|
G#|----0h0--x-0----0000---0-0-0-0-0-0-0-0-0--0h0--x-0----0000-----------------|
F |----0h5--x-5/7--7777---0-0-0-0-0-0-0-0-0--0h5--x-5/7--7777-----------------|
C#|----0h0--x-0----0000---0-----0-----0-0-0--0h0--x-0----0000-----------------|
G#|----0hx--x-x----xxxx---2-----2-----2-2-2--0hx--x-x----xxxx-----------------|
C#|----0h5--x-5/7--7777---0-----0-----0-0-0--0h5--x-5/7--7777-----------------|

c#|----0h9\7p0h2p0h44444/--0h9\7p0h2p0-000-00--------R------------------------|
G#|----0-----------00000---0-----------000-00--------E------------------------|
F |----0h9\7p0h2p0h44444/--0h9\7p0h2p0-000-00--------P------------------------|
C#|----0-----------00000---------------000-00--------E------------------------|
G#|----0-----------00000---------------000-00--------A------------------------|
C#|--------------------------------------------------T------------------------|

c#|--------------------------------------------------R------------------------|
G#|--------------------------------------------------E------------------------|
F |--------8----8-8-8-8-8-8-8-------0-0000-00--------P-8X---------------------|
C#|------9------9-9-9---9-9-9---------000--00--------E------------------------|
G#|---10---10--10101010101010-----2-2-2222-22--------A------------------------|
C#|-----------------------------0--------------------T------------------------|

c#|----0h0--x-0----0000---0-0-0-0-0-0-0-0-0--0h0--x-0----0000-----------------|
G#|----0h0--x-0----0000---0-0-0-0-0-0-0-0-0--0h0--x-0----0000-----------------|
F |----0h5--x-5/7--7777---0-0-0-0-0-0-0-0-0--0h5--x-5/7--7777-----------------|
C#|----0h0--x-0----0000---0-----0-----0-0-0--0h0--x-0----0000-----------------|
G#|----0hx--x-x----xxxx---2-----2-----2-2-2--0hx--x-x----xxxx-----------------|
C#|----0h5--x-5/7--7777---0-----0-----0-0-0--0h5--x-5/7--7777-----------------|

c#|----0h9\7p0h2p0h44444/--0h9\7p0h2p0-000-00--------R------------------------|
G#|----0-----------00000---0-----------000-00--------E------------------------|
F |----0h9\7p0h2p0h44444/--0h9\7p0h2p0-000-00--------P------------------------|
C#|----0-----------00000---------------000-00--------E------------------------|
G#|----0-----------00000---------------000-00--------A------------------------|
C#|--------------------------------------------------T------------------------|

c#|--------------------------------------------------R------------------------|
G#|--------------------------------------------------E------------------------|
F |-----8--8--8-8-8-8--8-8-3-3-3333-33---------------P-4X---------------------|
C#|-----9--9--9-9-9-9--9-9-4-4-4444-44---------------E------------------------|
G#|----10-10-10101010-1010-5-5-5555-55---------------A------------------------|
C#|--------------------------------------------------T------------------------|

c#|----0h0--x-0----0000---0-0-0-0-0-0-0-0-0--0h0--x-0----0000-----------------|
G#|----0h0--x-0----0000---0-0-0-0-0-0-0-0-0--0h0--x-0----0000-----------------|
F |----0h5--x-5/7--7777---0-0-0-0-0-0-0-0-0--0h5--x-5/7--7777-----------------|
C#|----0h0--x-0----0000---0-----0-----0-0-0--0h0--x-0----0000-----------------|
G#|----0hx--x-x----xxxx---2-----2-----2-2-2--0hx--x-x----xxxx-----------------|
C#|----0h5--x-5/7--7777---0-----0-----0-0-0--0h5--x-5/7--7777-----------------|

c#|----0h9\7p0h2p0h44444/--0h9\7p0h2p0-000-00--------R------------------------|
G#|----0-----------00000---0-----------000-00--------E------------------------|
F |----0h9\7p0h2p0h44444/--0h9\7p0h2p0-000-00--------P------------------------|
C#|----0-----------00000---------------000-00--------E------------------------|
G#|----0-----------00000---------------000-00--------A------------------------|
C#|--------------------------------------------------T------------------------|

c#|---------------------------------------------------------------------------|R
G#|---------------------------------------------------------------------------|E
F |-------8---8-8-8-8-8-8-8-------8--8-8-8-8-8-8-8------0-0000-00----0-0000-00|P
C#|----9------9-9-9---9-9-9----9-----9-9-9---9-9-9--------000--00-------------|E
G#|-10---10--10101010101010-10---10-10101010101010----2-2-2222-22--2-2-2222-22|A
C#|-------------------------------------------------0------------0------------|T

c#|----0h0--x-0----0000---0-0-0-0-0-0-0-0-0--0h0--x-0----0000-0-00-00-00-00000|
G#|----0h0--x-0----0000---0-0-0-0-0-0-0-0-0--0h0--x-0----0000-0-00-00-00-00000|
F |----0h5--x-5/7--7777---0-0-0-0-0-0-0-0-0--0h5--x-5/7--7777-7-77-77-77-77777|
C#|----0h0--x-0----0000---0-----0-----0-0-0--0h0--x-0----0000-0-00-00-00-00000|
G#|----0hx--x-x----xxxx---2-----2-----2-2-2--0hx--x-x----xxxx-x-xx-xx-xx-xxxxx|
C#|----0h5--x-5/7--7777---0-----0-----0-0-0--0h5--x-5/7--7777-7-77-77-77-77777|

c#|--0-00-0-0000--------------------------------------------------------------|
G#|--0-00-0-0000--------------------------------------------------------------|
F |--7-77-7-7777--------------------------------------------------------------|
C#|--0-00-0-0000--------------------------------------------------------------|
G#|--x-xx-x-xxxx--------------------------------------------------------------|
C#|--7-77-7-7777--------------------------------------------------------------|

c#|----0h0--x-0----0000---0-0-0-0-0-0-0-0-0--0h0--x-0----0000-----------------|
G#|----0h0--x-0----0000---0-0-0-0-0-0-0-0-0--0h0--x-0----0000-----------------|
F |----0h5--x-5/7--7777---0-0-0-0-0-0-0-0-0--0h5--x-5/7--7777-----------------|
C#|----0h0--x-0----0000---0-----0-----0-0-0--0h0--x-0----0000-----------------|
G#|----0hx--x-x----xxxx---2-----2-----2-2-2--0hx--x-x----xxxx-----------------|
C#|----0h5--x-5/7--7777---0-----0-----0-0-0--0h5--x-5/7--7777-----------------|

c#|--0-00-0-00-0-0-0-0--------------------------------------------------------|
G#|--0-00-0-00-0-0-0-0--------------------------------------------------------|
F |--5-55-5-55-5-5-5-5--------------------------------------------------------|
C#|--0-00-0-00-0-0-0-0--------------------------------------------------------|
G#|--x-xx-x-xx-x-x-x-x--------------------------------------------------------|
C#|--5-55-5-55-5-5-5-5--------------------------------------------------------|
            
Hard to play? Try these video lessons and learn fast. | Correct




comments powered by Disqus
↑ Back to top | Tablatures and chords are parodies/interpretations of the original songs. You may use it for private study, scholarship, research or language learning purposes only