» » »

Dream Catch Me Bass tabs (ver.1)

Artists:  A B C D E F G H I J K L M N O P Q R S T U V W X Y Z # 

Dream Catch Me Bass tabs (ver.1)

Newton Faulkner
Rating:
4/5 (2 votes)

Hard to play? Try these video lessons and learn fast.
                Bass Doesn't Come In Till 0:45. Play In Quavers. These Are Crotchets.

Chorus:
 G|-------------------------------------------------------------------|
 D|-------------------------------------------------------------------|
 A|5-5-5-5-5-5-5-5----------------------------------------------------| X2
 E|---------------5-5-5-5-5-5-5-5-7-7-7-7-7-7-7-7-3-3-3-3-3-3-3-3-----|

 G|--------|
 D|--------|
 A|--------|
 E|0------3|

Verse:
 G|-------------------------------   ----------------------------------|
 D|-------------------------------   ----------------------------------|
 A|-------------------------------X2 ----------------------------------|
 E|2-2-2-2-2-2-2-2-3-3-3-3-3-3-3-3   0-0-0-0-0-0-0-2-3-3-3-3-3-3-3-5-2-|

 G|------------------------------------------------------------------|
 D|------------------------------------------------------------------|
 A|-------------5-5-5-5-5-5-5-5-7-7-7-7-7-7-7-7----------------------|
 E|2-2-2-2-2-2-2-------------------------------5-5-5-5-5-5-5-5-------|

2nd Chorus:
 G|-------------------------------------------------------------------|
 D|-------------------------------------------------------------------|
 A|5-5-5-5-5-5-5-5----------------------------------------------------| X2
 E|---------------5-5-5-5-5-5-5-5-7-7-7-7-7-7-7-7-3-3-3-3-3-3-3-3-----|

 G|---------------|
 D|---------------|
 A|---------------|
 E|0-0-0-0-3-3-3-3|

Bridge:
 G|------------------------------    ----------------------------------|
 D|------------------------------    ----------------------------------|
 A|---------------5-5-5-5-0-0-0-0 X2 0-0-0-0-5-------------------------|
 E|7-7-7-7-3-3-3-3---------------    ----------------------------------|


                                Guitar And Vocals Gap

Count 7 Bars Of 4 From Your Last Note and Come in on the second beat of the bar 7.

 G|----------------|
 D|----------------|
 A|----------------|
 E|5-5-5-5-5-5-5-5-|

3rd Chorus:
 G|--------------------------------------------------------------------|
 D|--------------------------------------------------------------------|
 A|5-5-5-5-5-5-5-5-----------------------------------------------------| X2
 E|---------------5-5-5-5-5-5-5-5-7-7-7-7-7-7-7-7-3-3-3-3-3-3-3-3------|

 G|------------------------------------------------------------------|
 D|------------------------------------------------------------------|
 A|----------------5-------------------------------------------------|
 E|0-------3---------------------------------------------------------|
            
Hard to play? Try these video lessons and learn fast. | Correct




comments powered by Disqus
↑ Back to top | Tablatures and chords are parodies/interpretations of the original songs. You may use it for private study, scholarship, research or language learning purposes only