» » »

Dream Catch Me Tabs (ver.1)

Artists:  A B C D E F G H I J K L M N O P Q R S T U V W X Y Z # 

Dream Catch Me Tabs (ver.1)

Newton Faulkner
Rating:
4.1/5 (31 vote)

Hard to play? Try these video lessons and learn fast.
                Should be tuned down a step, but it sounds fine in standard if you're playing it solo ;)
He finger picks most of the song and you can figure out the exact pattern to his picking 
listening carefully to the song. Of course you could just strum all the chords :P


Intro - (fingerpicked)

e|-2-----3-----2----3--|
A|---------------------|
D|---------------------|
G|-2-----2-----2----2--|
B|-3-----3-----3----3--|
E|---------------------|


Verse - (fingerpicked)

e|-2-----3-----2-----3-----0-----3-----------------0--------|
A|-------------------------------------------2-----------0--|
D|-------------------------------------0-0---------------2--|
G|-2-----2-----2-----2-----0-----0-----2-2---4-----0-----2--|
B|-3-----3-----3-----3-----5-----3-----3-3---3-----5-----2--|
E|-------------------------------------2-0---------------0--|


Chorus - (fingerpicked first time)

e|-------------------3---|
A|-------0-----2---------|
D|-0-----2---------------|
G|-2-----------4-----0---|     x2
B|-3-----2-----3-----3---|
E|-0-----0---------------|


e|-0-----3---|
A|-2---------| Strum first chord upwards once.
D|-----------| Pluck all notes of second chord once simultaneously.
G|-0-----0---|
B|-5-----3---|
E|-----------|


Verse -

This time he does quiet muted strums for the first four chords then goes back to picking.

e|--2-----3-----2-----3-----0-----3-----------------0--------|
A|--------------------------------------------2-----------0--|
D|--0-----0-----0-----0-----------------0-0---------------2--|
G|--2-----2-----2-----2-----0-----0-----2-2---4-----0-----2--|
B|--3-----3-----3-----3-----5-----3-----3-3---3-----5-----2--|
E|--------------------------------------2-0---------------0--|


Chorus - (strummed)

e|--------------------3---|
A|--------0-----2-----2---|
D|--0-----2-----4-----0---|
G|--2-----2-----4-----0---|     x2
B|--3-----2-----3-----3---|
E|--2-----0-----2-----3---|


e|-0-----3---|
A|-2---------| Strum first chord upwards once.
D|-----------| Pluck all notes of second chord once simultaneously.
G|-0-----0---|
B|-5-----3---|
E|-----------|


Bridge - (strummed)

e|--------3----------------|
A|--2-----2-----------0----|
D|--4-----0-----0-----2----|
G|--4-----0-----2-----2----|    x2
B|--3-----3-----3-----2----|
E|--2-----3-----2-----0----|


Chorus - (fingerpicked)

e|--------------------3---|
A|--------0-----2-----2---|
D|--0-----2-----4-----0---|
G|--2-----2-----4-----0---|     He strums the final chord a couple times
B|--3-----2-----3-----3---|
E|--2-----0-----2-----3---|


Chorus - (Chords are strummed and he taps his guitar)

e|--------------------3---|
A|--------0-----2-----2---|
D|--0-----2-----4-----0---|
G|--2-----2-----4-----0---|     x2
B|--3-----2-----3-----3---|
E|--2-----0-----2-----3---|

e|-0-----3--------|
A|-2--------------| Strum first chord upwards once.
D|-------------0--| Pluck all notes of second chord once simultaneously.
G|-0-----0-----2--| One downward strum for the final chord.
B|-5-----3-----3--|
E|-------------2--|


Right, I think I'm done :P


Enjoy :D
            
Hard to play? Try these video lessons and learn fast. | Correct




comments powered by Disqus
↑ Back to top | Tablatures and chords are parodies/interpretations of the original songs. You may use it for private study, scholarship, research or language learning purposes only