» » »

Newsboys, Gods Not Dead Tabs (ver.1)

Artists:  A B C D E F G H I J K L M N O P Q R S T U V W X Y Z # 

Gods Not Dead Tabs (ver.1)

Newsboys Tabs
 Rating:
4/5 (4 votes)
Gods Not Dead lessons Tabs too difficult? Try these video lessons and learn fast
1
                  Newsboys "God's Not Dead"
e|Intro------------------------------|
B|777-------777----------------------|
G|----888888-------------------------|
D|--------------888888-99999999999999|
A|-----------------------------------|
E|-----------------------------------|

e|Intro-----------------------------|
B|777--------777--------------------|
G|----888888------------------------|
D|---------------888888-999999999999|
A|----------------------------------|
E|----------------------------------|

e|Intro------------------------------|
B|777--------777--------------------7|
G|----888888-------------------------|
D|---------------888888-99999999999--|
A|-----------------------------------|
E|-----------------------------------|

e|------------------------------------|
B|777--------777----------------------|
G|----888888--------------------------|
D|---------------888888-99999999999999|
A|------------------------------------|
E|------------------------------------|


e|7h8h8h8-6h7h7h7|
B|---------------|
G|---------------|
D|---------------|
A|---------------|
E|---------------|







    he's living on the inside
e|------------------------------------|
B|------------------------------------|
G|------------------------------------|
D|------------------------------------|
A|66666666666-444444444444-66666666666|
E|44444444444-222222222222-44444444444|


    he's roaring, he's roaring, he's roaring like a lion
e|-----------------------------------------|
B|777-------777----------------------------|
G|----888888------------------------------7|
D|--------------888888-999999999999999999--|
A|-----------------------------------------|
E|-----------------------------------------|


   he's living on the inside
e|-----------------------------------------------------|
B|-----------------------------------------------------|
G|-----------------------------------------------------|
D|-----------------------------------------------------|
A|6666666666666666-44444444444444444444-666666666666666|
E|4444444444444444-22222222222222222222-444444444444444|


 he's roaring, he's roaring, he's roaring like a lion
e|-------------------------------------|x2
B|777--------777-----------------------|
G|----888888---------------------------|
D|---------------888888-999999999999999|
A|-------------------------------------|
E|-------------------------------------|


  he's living on the inside
e|-----------------------------------------------------|x2
B|-----------------------------------------------------|
G|-----------------------------------------------------|
D|-----------------------------------------------------|
A|6666666666666666-44444444444444444444-666666666666666|
E|4444444444444444-22222222222222222222-444444444444444|


    he's roaring, he's roaring like a lion
e|-----------------------------------------|x2
B|777--------777---------------------------|
G|----888888-------------------------------|
D|-----------------888888-99999999999999999|
A|-----------------------------------------|
E|-----------------------------------------|


   he's roaring like a lion
e|-------------|
B|7-----7------|
G|---8---------|
D|----------8/9|
A|-------------|
E|-------------|ending
            
Submit corrections

comments powered by Disqus
↑ Back to top | Newsboys Tabs for Gods Not Dead. Lyrics for acoustic guitar and electric guitar. 1 Tablatures and chords are parodies/interpretations of the original songs. You may use it for private study, scholarship, research or language learning purposes only