» » »

Ceremony Bass tabs (ver.1)

Artists:  A B C D E F G H I J K L M N O P Q R S T U V W X Y Z # 

Ceremony Bass tabs (ver.1)

New Order
Rating:
1/5 (3 votes)

Hard to play? Try these video lessons and learn fast.
                -------------------------------------------------------------------------------
-------------------------------------------------------------------------------


Tuning: Standard

Here’s the tab for New Orders epic Joy Division song...for the tone I’d
Cut the bass low and the Treble at about 8 and Mid at about 5 =]

Intro

G|------17------17--------17-------17-----17------17--------17------17-----17|
D|-15-------15--------15------15------15------15------0----------------------|
A|------------------------------------------------------15------15------15---|
E|---------------------------------------------------------------------------|

G|----17-----17-----17--|
D|----------------------|
A|-15-----15-----15-----|
E|----------------------|

Verse riff

G|------------------------------------------------------------------|
D|------------------------------------------------------------------|
A|------15-----15-----15----15----15/-----10---10----10----10---10--|
E|-13-------13-----13----13----13---/--8-----8-----8-----8----8-----|

Chorus...

G|------17----17-----17----17----17----17-/--12--12----12----12----12----12----12--|
D|--15-----15-----15----15----15----15----/--10-----10----10----10----10---10------|
A|---------------------------------------------------------------------------------|
E|---------------------------------------------------------------------------------|

Solo riff...


G|------------------------------------------------------------------|
D|------------------------------------------------------------------|
A|------15-----15-----15----15----15/-----10---10----10----10---10--|
E|-13-------13-----13----13----13---/--8-----8-----8-----8----8-----|

And chorus riff again...


G|------17----17-----17----17----17----17-/--12--12----12----12----12----12----12--|
D|--15-----15-----15----15----15----15----/--10-----10----10----10----10---10------|
A|---------------------------------------------------------------------------------|
E|---------------------------------------------------------------------------------|

On the outro, there is a riff along these lines playing...

G|---------------------------------------------------------------------------|
D|--15----15--15-15-15-15-15-15-14-15-17-17--------------14----14----14-17-17|
A|-------------------------------------------15-15-15-15----15----15---------|
E|---------------------------------------------------------------------------|

G|---------------------------------------------------------------------------|
D|--15----15--15-15-15-15-15-15-14-15-17-17--------------14----14----14-17-17|
A|-------------------------------------------15-15-15-15----15----15---------|
E|---------------------------------------------------------------------------|

Outro riff

G|--17-17-17-17-17-17-17-17/12-12-12-12-12-12-12-12--------------------------|
D|--15-15-15-15-15-15-15-15/10-10-10-10-10-10-10-10--------------------------|
A|---------------------------------------------------------------------------|
E|---------------------------------------------------------------------------|

G|----17-17-17-17-17-17-17-17-------12-12-12-12-12-12-12-12------------------|
D|-15-------------------------15/10------------------------------------------|
A|---------------------------------------------------------------------------|
E|---------------------------------------------------------------------------|

Listen to the song for complete timing obviously =]

Oh, and Modern Day Mannequins do a hilarious cover of this lol
            
Hard to play? Try these video lessons and learn fast. | Correct




comments powered by Disqus
↑ Back to top | Tablatures and chords are parodies/interpretations of the original songs. You may use it for private study, scholarship, research or language learning purposes only