» » »

Time Travel Bass tabs (ver.1)

Artists:  A B C D E F G H I J K L M N O P Q R S T U V W X Y Z # 

Time Travel Bass tabs (ver.1)

Nevershoutnever
Rating:
0/5 (0 votes)
Tabs too difficult? Try these video lessons and learn fast.
                -------------------------------------------------------------------------------
                             Time Travel - Never Shout Never
-------------------------------------------------------------------------------


Tuning: Standard (EADG)

Check out this video for the timing

0:15-0:41
G|-----------------------------------|
D|-----------------------------------|
A|--3~-------0~-------3~-------0~----|
E|-----------------------------------|

0:42-1:10
G|--------------------------------|
D|--------------------------------|
A|-3--3--3-3-333-3--3--3----3--3--|
E|--------------------------------|

G|--------------------------------|
D|--------------------------------|
A|--------------------------------|
E|-5--5--5-5-555-5--5--5----5--5--|

G|--------------------------------|
D|--------------------------------|
A|-3--3--3-3-333-3--3--3----3--3--|
E|--------------------------------|

G|------------------------------------|
D|------------------------------------|
A|------------------------------------|
E|-5--5--5-5-555-5--5--5----5--5-5/0--|

1:11-1:41
G|-----------------------------------------|
D|-----------------------------------------|
A|------------------------------------1/3--|
E|--11111111-11111111-11111111-111111------|

G|-------------------------------------------|
D|------------------------------------3-2-0--|
A|-------------------------------------------|
E|--33333333-33333333-33333333-333333--------|

G|-----------------------------------------|
D|-----------------------------------------|
A|------------------------------------1/3--|
E|--11111111-11111111-11111111-111111------|

G|-------------------------------------------------|
D|-------------------------------------------------|
A|------------------------------------5555-55-3~~--|
E|--33333333-33333333-33333333-333333--------------|

1:45-2:09

G|--5---4----------------------------------------|
D|----2---2--------------------------------------|
A|-----------------------------------------5555--|
E|----------55555555-55555555-55555555-5555------|

G|----------------------------------5---4----|
D|------------------------------------2---2--|
A|--33333333-33333333------------------------|
E|--------------------00000000-0000----------|

G|-----------------------------------------|
D|-----------------------------------------|
A|----------------------------------5553~--|
E|--55555555-55555555-55555555-55555-------|

2:15-3:04
G|------------------------|
D|------------------------|
A|--0~-------3~-------0~--|
E|------------------------|

G|----------------------------------|
D|----------------------------------|
A|-3--3--3-3-333-3--3--3----3--3----|
E|-------------------------------4~-|

G|----------------------------------|
D|----------------------------------|
A|----------------------------------|
E|-5--5--5-5-555-5--5--5----5--50~--|

G|----------------------------------|
D|----------------------------------|
A|-3--3--3-3-333-3--3--3----3--3----|
E|-------------------------------4~-|

G|---------------------------------|
D|---------------------------------|
A|---------------------------------|
E|-5--5--5-5-555-5-5-5----5-5-5/0--|

3:05-3:39
G|-----------------------------------------|
D|-----------------------------------------|
A|------------------------------------1/3--|
E|--11111111-11111111-11111111-111111------|

G|-------------------------------------------|
D|------------------------------------3-2-0--|
A|-------------------------------------------|
E|--33333333-33333333-33333333-333333--------|

G|-----------------------------------------|
D|-----------------------------------------|
A|------------------------------------1/3--|
E|--11111111-11111111-11111111-111111------|

G|-------------------------------------------------|
D|-------------------------------------------------|
A|------------------------------------5555-55-3~~--|
E|--33333333-33333333-33333333-333333--------------|

3:40-4:04
G|--5---4----------------------------------------|
D|----2---2--------------------------------------|
A|-----------------------------------------5555--|
E|----------55555555-55555555-55555555-5555------|

G|----------------------------------5---4----|
D|------------------------------------2---2--|
A|--33333333-33333333------------------------|
E|--------------------00000000-0000----------|

G|-----------------------------------------|
D|-----------------------------------------|
A|----------------------------------5550~--|
E|--55555555-55555555-55555555-55555-------|

4:09-5:37
G|-----------------------------------|
D|-----------------------------------|
A|-----------------------------------|
E|--0/5~-------0~-------1~-------0~--|

G|---------------------------------------|
D|---------------------------------------|
A|---------------------------------------|
E|--11111111-11111111-11111111-11111111--|

G|-----------------------------------|
D|-----------------------------------|
A|-----------------------------------|
E|--0-0-0-0-0-0-0-0-0-0-0-0-0-0-0-0--|

G|-----------------------------------|
D|-----------------------------------|
A|-----------------------------------|
E|--1-1-1-1-1-1-1-1-1-1-1-1-1-1-1-1--|

G|-----------------------------------|
D|-----------------------------------|
A|-----------------------------------|
E|--0-0-0-0-0-0-0-0-0-0-0-0-0-0-0-0--|

G|-------------------------------------|
D|-------------------------------------|
A|-------------------------------------|
E|--1-1-1-1-1-1-1-1-1-1-1-1-1-1-1-1-5~-|


| /  slide up
| \  slide down
| h  hammer-on
| p  pull-off
| ~  vibrato
| +  harmonic
| x  Mute note
===============================================================================
            
Tabs too difficult? Try these video lessons and learn fast.


comments powered by Disqus
↑ Back to top | Tablatures and chords are parodies/interpretations of the original songs. You may use it for private study, scholarship, research or language learning purposes only