» » »

Nevershoutnever, Stuck On You Tabs (ver.1)

Artists:  A B C D E F G H I J K L M N O P Q R S T U V W X Y Z # 

Stuck On You Tabs (ver.1)

Nevershoutnever Tabs
 Rating:
4/5 (4 votes)
Stuck On You lessons Tabs too difficult? Try these video lessons and learn fast
1
                don't be harsh, first tab i've ever made.

/ = slide up
~ = let ring

INTRO
-0------1--------0------1--------0------1--------0-----------------|
---1------1---1----1-------1---1---1------1---1--------------------|
-----0------2--------0-------2-------0------2----------------------|
--------3---------------3---------------3--------------------------|
-3---------------3---------------3---------------3-----------------|
-------------------------------------------------------------------|

VERSE 1

-0-------1-------0-------1--------0-------1--------0-----------------|
---1---1---1---1---1---1----1---1---1---1---1---1--------------------|
-----0-------2-------0--------2-------0-------2----------------------|
---------3---------------3----------------3--------------------------|
-3---------------3----------------3----------------3-----------------|
---------------------------------------------------------------------|
and if i...     i'd sail the...   to tell you baby...


-0-------1-------0-------1--------0-------1--------0-----------------|
---1---1---1---1---1---1----1---1---1---1---1---1--------------------|
-----0-------2-------0--------2-------0-------2----------------------|
---------3---------------3----------------3--------------------------|
-3---------------3----------------3----------------3-----------------|
-------------------------------------------------------11/-----------|
this world...    without your...  i'm sure it's...


        G~                              C~
And i know that you'll see someday that i can't live without you

       F~
And i know what i say is true

       G
Cause i'm still stuck on you, girl

C                                        F
I'm in love for the first time i layed my eyes on you

                        C
Shoo tu tu tu tu tu do oh oh

        C               F       G
There's nothing i can do-o-o

C                                                F
And i'm in love for the first time i layed my lips on yours

                         C
Now your walking out my do-or

        C                F       G
There's nothing i can do-o-o

VERSE 2 [same as verse 1]

-0-------1-------0-------1--------0-------1--------0-----------------|
---1---1---1---1---1---1----1---1---1---1---1---1--------------------|
-----0-------2-------0--------2-------0-------2----------------------|
---------3---------------3----------------3--------------------------|
-3---------------3----------------3----------------3-----------------|
---------------------------------------------------------------------|
and if i...     i'd bring you...   we'd go to...


-0-------1-------0-------1--------0-------1--------0-----------------|
---1---1---1---1---1---1----1---1---1---1---1---1--------------------|
-----0-------2-------0--------2-------0-------2----------------------|
---------3---------------3----------------3--------------------------|
-3---------------3----------------3----------------3-----------------|
-------------------------------------------------------11/-----------|
but i'm ...      in denny's...    and sharing a...

        G~                              C~
And i know that you'll see someday that i can't live without you

       F~
And i know what i say is true

       G
Cause i'm still stuck on you, girl

C                                        F
I'm in love for the first time i layed my eyes on you

                        C
Shoo tu tu tu tu tu do oh oh

        C               F       G
There's nothing i can do-o-o

C                                                F
And i'm in love for the first time i layed my lips on yours

                         C
Now your walking out my do-or

        C                F       G
There's nothing i can do-o-o


                 G
I'm in love with you...
            
Submit corrections

comments powered by Disqus
↑ Back to top | Nevershoutnever Tabs for Stuck On You. Lyrics for acoustic guitar and electric guitar. 1 Tablatures and chords are parodies/interpretations of the original songs. You may use it for private study, scholarship, research or language learning purposes only