» » »

Nevershoutnever, Harmony Tabs (ver.1)

Artists:  A B C D E F G H I J K L M N O P Q R S T U V W X Y Z # 

Harmony Tabs (ver.1)

Nevershoutnever Tabs
 Rating:
4/5 (4 votes)
Harmony lessons Tabs too difficult? Try these video lessons and learn fast
1
                All the others are just chords, no tabs and they have the right idea, but there 
are some things. so im adding those and doing tabs because its more accurate than 
chords. this tab is 100% correct

Standard tuning
Capo 2

Intro
E:----3333-----3333|
B:----3333-----3333|
G:----0000-----0000|
D:----0000-----0000|
A:----2222-----2222|
E:-3--3333--3--3333|

Verse 1
E:----00-----3333-----3333-----00-----3333-----3333-----00-----3333-----3333|
B:----11-----3333-----3333-----11-----3333-----3333-----11-----3333-----3333|
G:----00-----0000-----0000-----00-----0000-----0000-----00-----0000-----0000|
D:----22-----0000-----0000-----22-----0000-----0000-----22-----0000-----0000|
A:-3--33-----2222-----2222--3--33-----2222-----2222--3--33-----2222-----2222|
E:--------3--3333--3--3333---------3--3333--3--3333---------3--3333--3--3333|

E:----00-----2222-----3333-----3333--
B:----11-----3333-----3333-----3333--
G:----00-----2222-----0000-----0000--
D:----22--0--0000-----0000-----0000--
A:-3--33--------------2222-----2222--
E:-----------------3--3333--3--3333--

E:----00-----3333-----3333-----00-----3333-----3333-----00-----3333-----3333|
B:----11-----3333-----3333-----11-----3333-----3333-----11-----3333-----3333|
G:----00-----0000-----0000-----00-----0000-----0000-----00-----0000-----0000|
D:----22-----0000-----0000-----22-----0000-----0000-----22-----0000-----0000|
A:-3--33-----2222-----2222--3--33-----2222-----2222--3--33-----2222-----2222|
E:--------3--3333--3--3333---------3--3333--3--3333---------3--3333--3--3333|

E:----00-----2222-----0000-----0000-----0000-----0000|
B:----11-----3333-----0000-----0000-----0000-----0000|
G:----00-----2222-----0000-----0000-----0000-----0000|
D:----22--0--0000-----2222-----2222-----2222-----2222|
A:-3--33--------------2222--2--2222-----2222--2--2222|
E:-----------------0-----------------0---------------|

Chorus
E:----0000-----2222-----3333-----0000-----0000-----2222-----3333-----3333|
B:----1111-----3333-----3333-----0000-----1111-----3333-----3333-----3333|
G:----0000-----2222-----0000-----0000-----0000-----2222-----0000-----0000|
D:----2222--0--0000-----0000-----2222-----2222--0--0000-----0000-----0000|
A:-3--3333--------------2222-----2222--3--3333--------------2222-----2222|
E:-------------------3--3333--0--------------------------3--3333--3--3333|

E:----0000-----2222-----0000-----0000-----0000-----2222-----0000-----0000|
B:----1111-----3333-----0000-----0000-----1111-----3333-----0000-----0000|
G:----0000-----2222-----0000-----0000-----0000-----2222-----0000-----0000|
D:----2222--0--0000-----2222-----2222-----2222--0--0000-----2222-----2222|
A:-3--3333--------------2222--2--2222--3--3333--------------2222--2--2222|
E:-------------------0-----------------------------------0---------------|

E:----0000-----2222-----3333-----3333|
B:----1111-----3333-----3333-----3333|
G:----0000-----2222-----0000-----0000|
D:----2222--0--0000-----0000-----0000|
A:-3--3333--------------2222-----2222|
E:-------------------3--3333--3--3333|

Harmonica Time
E:----00-----3333-----3333-----00-----3333-----3333-----00-----3333-----3333|
B:----11-----3333-----3333-----11-----3333-----3333-----11-----3333-----3333|
G:----00-----0000-----0000-----00-----0000-----0000-----00-----0000-----0000|
D:----22-----0000-----0000-----22-----0000-----0000-----22-----0000-----0000|
A:-3--33-----2222-----2222--3--33-----2222-----2222--3--33-----2222-----2222|
E:--------3--3333--3--3333---------3--3333--3--3333---------3--3333--3--3333|

E:----33-----3333-----3333|
B:----33-----3333-----3333|
G:----00-----0000-----0000|
D:----00-----0000-----0000|
A:----22-----2222-----2222|
E:-3--33--3--3333--3--3333|

Verse 2
E:----00-----3333-----3333-----00-----3333-----3333-----00-----3333-----3333|
B:----11-----3333-----3333-----11-----3333-----3333-----11-----3333-----3333|
G:----00-----0000-----0000-----00-----0000-----0000-----00-----0000-----0000|
D:----22-----0000-----0000-----22-----0000-----0000-----22-----0000-----0000|
A:-3--33-----2222-----2222--3--33-----2222-----2222--3--33-----2222-----2222|
E:--------3--3333--3--3333---------3--3333--3--3333---------3--3333--3--3333|

E:----00-----2222-----3333-----3333--
B:----11-----3333-----3333-----3333--
G:----00-----2222-----0000-----0000--
D:----22--0--0000-----0000-----0000--
A:-3--33--------------2222-----2222--
E:-----------------3--3333--3--3333--

E:----00-----3333-----3333-----00-----3333-----3333-----00-----3333-----3333|
B:----11-----3333-----3333-----11-----3333-----3333-----11-----3333-----3333|
G:----00-----0000-----0000-----00-----0000-----0000-----00-----0000-----0000|
D:----22-----0000-----0000-----22-----0000-----0000-----22-----0000-----0000|
A:-3--33-----2222-----2222--3--33-----2222-----2222--3--33-----2222-----2222|
E:--------3--3333--3--3333---------3--3333--3--3333---------3--3333--3--3333|

E:----00-----2222-----0000-----0000-----0000-----0000|
B:----11-----3333-----0000-----0000-----0000-----0000|
G:----00-----2222-----0000-----0000-----0000-----0000|
D:----22--0--0000-----2222-----2222-----2222-----2222|
A:-3--33--------------2222--2--2222-----2222--2--2222|
E:-----------------0-----------------0---------------|

Chorus
E:----0000-----2222-----3333-----0000-----0000-----2222-----3333-----3333|
B:----1111-----3333-----3333-----0000-----1111-----3333-----3333-----3333|
G:----0000-----2222-----0000-----0000-----0000-----2222-----0000-----0000|
D:----2222--0--0000-----0000-----2222-----2222--0--0000-----0000-----0000|
A:-3--3333--------------2222-----2222--3--3333--------------2222-----2222|
E:-------------------3--3333--0--------------------------3--3333--3--3333|

E:----0000-----2222-----0000-----0000-----0000-----2222-----0000-----0000|
B:----1111-----3333-----0000-----0000-----1111-----3333-----0000-----0000|
G:----0000-----2222-----0000-----0000-----0000-----2222-----0000-----0000|
D:----2222--0--0000-----2222-----2222-----2222--0--0000-----2222-----2222|
A:-3--3333--------------2222--2--2222--3--3333--------------2222--2--2222|
E:-------------------0-----------------------------------0---------------|

E:----0000-----2222-----3333-----3333|
B:----1111-----3333-----3333-----3333|
G:----0000-----2222-----0000-----0000|
D:----2222--0--0000-----0000-----0000|
A:-3--3333--------------2222-----2222|
E:-------------------3--3333--3--3333|

Harmonica Time
E:----00-----3333-----3333-----00-----3333-----3333-----00-----3333-----3333|
B:----11-----3333-----3333-----11-----3333-----3333-----11-----3333-----3333|
G:----00-----0000-----0000-----00-----0000-----0000-----00-----0000-----0000|
D:----22-----0000-----0000-----22-----0000-----0000-----22-----0000-----0000|
A:-3--33-----2222-----2222--3--33-----2222-----2222--3--33-----2222-----2222|
E:--------3--3333--3--3333---------3--3333--3--3333---------3--3333--3--3333|

E:----33-----3333-----3333|
B:----33-----3333-----3333|
G:----00-----0000-----0000|
D:----00-----0000-----0000|
A:----22-----2222-----2222|
E:-3--33--3--3333--3--3333|

Verse 3
E:----00-----3333-----3333-----00-----3333-----3333-----00-----3333-----3333|
B:----11-----3333-----3333-----11-----3333-----3333-----11-----3333-----3333|
G:----00-----0000-----0000-----00-----0000-----0000-----00-----0000-----0000|
D:----22-----0000-----0000-----22-----0000-----0000-----22-----0000-----0000|
A:-3--33-----2222-----2222--3--33-----2222-----2222--3--33-----2222-----2222|
E:--------3--3333--3--3333---------3--3333--3--3333---------3--3333--3--3333|

E:----00-----2222-----3333-----3333--
B:----11-----3333-----3333-----3333--
G:----00-----2222-----0000-----0000--
D:----22--0--0000-----0000-----0000--
A:-3--33--------------2222-----2222--
E:-----------------3--3333--3--3333--

E:----00-----3333-----3333-----00-----3333-----3333-----00-----3333-----3333|
B:----11-----3333-----3333-----11-----3333-----3333-----11-----3333-----3333|
G:----00-----0000-----0000-----00-----0000-----0000-----00-----0000-----0000|
D:----22-----0000-----0000-----22-----0000-----0000-----22-----0000-----0000|
A:-3--33-----2222-----2222--3--33-----2222-----2222--3--33-----2222-----2222|
E:--------3--3333--3--3333---------3--3333--3--3333---------3--3333--3--3333|

E:----00-----2222-----0000-----0000-----0000-----0000|
B:----11-----3333-----0000-----0000-----0000-----0000|
G:----00-----2222-----0000-----0000-----0000-----0000|
D:----22--0--0000-----2222-----2222-----2222-----2222|
A:-3--33--------------2222--2--2222-----2222--2--2222|
E:-----------------0-----------------0---------------|

Chorus
E:----0000-----2222-----3333-----0000-----0000-----2222-----3333-----3333|
B:----1111-----3333-----3333-----0000-----1111-----3333-----3333-----3333|
G:----0000-----2222-----0000-----0000-----0000-----2222-----0000-----0000|
D:----2222--0--0000-----0000-----2222-----2222--0--0000-----0000-----0000|
A:-3--3333--------------2222-----2222--3--3333--------------2222-----2222|
E:-------------------3--3333--0--------------------------3--3333--3--3333|

E:----0000-----2222-----0000-----0000-----0000-----2222-----0000-----0000|
B:----1111-----3333-----0000-----0000-----1111-----3333-----0000-----0000|
G:----0000-----2222-----0000-----0000-----0000-----2222-----0000-----0000|
D:----2222--0--0000-----2222-----2222-----2222--0--0000-----2222-----2222|
A:-3--3333--------------2222--2--2222--3--3333--------------2222--2--2222|
E:-------------------0-----------------------------------0---------------|

E:----0000-----2222-----3333-----3333|
B:----1111-----3333-----3333-----3333|
G:----0000-----2222-----0000-----0000|
D:----2222--0--0000-----0000-----0000|
A:-3--3333--------------2222-----2222|
E:-------------------3--3333--3--3333|

Harmonica/Outro
E:----0000-----2222-----3333-----3333-----0000-----2222-----3333-----0000|
B:----1111-----3333-----3333-----3333-----1111-----3333-----3333-----0000|
G:----0000-----2222-----0000-----0000-----0000-----2222-----0000-----0000|
D:----2222--0--0000-----0000-----0000-----2222--0--0000-----0000-----2222|
A:-3--3333--------------2222-----2222--3--3333--------------2222-----2222|
E:-------------------3--3333--3--3333--------------------3--3333--0------|

E:----0000-----2222-----3333-----3333-----0000-----2222--3|
B:----1111-----3333-----3333-----3333-----1111-----3333--3|
G:----0000-----2222-----0000-----0000-----0000-----2222--0|
D:----2222--0--0000-----0000-----0000-----2222--0--0000--0|
A:-3--3333--------------2222-----2222--3--3333-----------2|
E:-------------------3--3333--3--3333--------------------3|
            
Submit corrections

comments powered by Disqus
↑ Back to top | Nevershoutnever Tabs for Harmony. Lyrics for acoustic guitar and electric guitar. 1 Tablatures and chords are parodies/interpretations of the original songs. You may use it for private study, scholarship, research or language learning purposes only