» » »

Cheatercheaterbestfriendeater Tabs (ver.1)

Artists:  A B C D E F G H I J K L M N O P Q R S T U V W X Y Z # 

Cheatercheaterbestfriendeater Tabs (ver.1)

Nevershoutnever
Rating:
4/5 (5 votes)

Hard to play? Try these video lessons and learn fast.
                

Tuning: Standard

***This is not a completely correct strumming pattern***


    Yeah you sure    you said you had slept  I know you called
    broke my heart   with him                 
    last week when
e|-7-7-7-7-7-7-7-7-7-5-5-5-5-5-5-5-5-5-5-5-5-7-7-7-7-7-7-7-7--|
B|-8-8-8-8-8-8-8-8-8-8-8-8-8-8-8-8-8-8-8-8-8-8-8-8-8-8-8-8-8--|
G|-7-7-7-7-7-7-7-7-7-7-7-7-7-7-7-7-7-7-7-7-7-7-7-7-7-7-7-7-7--|
D|------------------------------------------------------------|
A|------------------------------------------------------------|
E|------------------------------------------------------------|

   I got them all
e|-5-5-5-5-8-5-5-5-|
B|-8-8-8-8-8-8-8-8-|
G|-7-7-7-7-7-7-7-7-|
D|-----------------|
A|-----------------|
E|-----------------|

   La ra ra ra da da
e|-8-8-8-8-8-8--8--8--|-5-5-5-5-8-8-8-8-5-5-5-5-8-|
B|-8-8-8-8-8-8--8--8--|-8-8-8-8-8-8-8-8-8-8-8-8-8-|
G|-7-7-7-7-7-7--7--7--|-7-7-7-7-7-7-7-7-7-7-7-7-7-|
D|--------------------|---------------------------|
A|--------------------|---------------------------|
E|--------------------|---------------------------|

Repeat the chords throughout the whole song and have fun!
            
Hard to play? Try these video lessons and learn fast. | Correct




comments powered by Disqus
↑ Back to top | Tablatures and chords are parodies/interpretations of the original songs. You may use it for private study, scholarship, research or language learning purposes only