» » »

Wood Tabs (ver.1)

Artists:  A B C D E F G H I J K L M N O P Q R S T U V W X Y Z # 

Wood Tabs (ver.1)

Neutral Milk Hotel
Rating:
5/5 (1 vote)

Tabs too difficult? Try these video lessons and learn fast.
                (Guitar)
Wood Guitar by Neutral Milk Hotel
beautiful song :)

Tuning: standard

Guitar 1 (intro/verse riff):
barre chords G and F

e|---------------------------------------------------|
B|---------------------------------------------------|
G|---------------------------------------------------|
D|------5-----------5-----------3-----------3--------|
A|----5---5-------5---5-------3---3-------3---3------|
E|--3-------3-3-3-------3-3-1-------1-1-1-------1-1--|


(break):
barre chords G, C, D

e|----------------------------------------------------|
B|----------------------------------------------------|
G|----------------------------------------------------|
D|--5-----10---12-------------------------------------|
A|--5-----10---12-------------------------------------|
E|--3-----8----10-------------------------------------|

Guitar 2 (solo bit played over first break):

e|---------------------------------------------------------------------------|
B|---------------------------------------------------------------------------|
G|-------------------------------------------------------------12-11-9-11-12-|
D|------------9-9-----------------------------------12-12-14-14--------------|
A|----9-10-12-----12p10-12-10-9---9-10-9-10-12-12h14-------------------------|
E|-10---------------------------10-------------------------------------------|

(solo bit played over second break):

e|---------------------------------------------------------------------------|
B|---------------------------------------------------------------------------|
G|---------------------------------------------------------------------------|
D|---------------------------------------------------------------------------|
A|---9-10-12-10-9-10-10-9-7-7-9-7-7-5-5-5-3-3-3-2-3-5-5-3-2-5-3-2-5-3-2-0-0--|
E|10-----------------------------------------------------------------------3-|

Second guitar continues with barre chords G and F throughout the outro while first 
repeats the intro/verse riff.


Lyrics:

Here we are
A final moment
Found inside a wood guitar
That splits the seams wide open, but lo
'cause i know who you are
You paint the doors and walls and listen for the bell-chime calls
And life is nothing more at all than tea-cup drips and bouncing balls
And oh, it's real and never fading
I'll listen to the strings you strum and all the words you're saying now

Ooh, sing a song
A song with feeling
That sounds best when you've hit the bong
And concludes deeper meaning, but oh
'cause i know sometimes
All the thoughts can sometimes hit
Confusion as the record skips
But who are these fools that think you're hip
When all the world is full of sh*t
And oh, i hear the tunes you're playing
It splits inside the summer sky
It's softly cascading on


Enjoy! Comments/corrections welcome.
            
Tabs too difficult? Try these video lessons and learn fast.




comments powered by Disqus
↑ Back to top | Tablatures and chords are parodies/interpretations of the original songs. You may use it for private study, scholarship, research or language learning purposes only