» » »

Neutral Milk Hotel, Two Headed Boy Bass tabs (ver.1)

Artists:  A B C D E F G H I J K L M N O P Q R S T U V W X Y Z # 

Two Headed Boy Bass tabs (ver.1)

Neutral Milk Hotel Tabs
 Rating:
3.4/5 (5 votes)
Two Headed Boy lessons Tabs too difficult? Try these video lessons and learn fast
1
                The timing on this song is pretty difficult to get used to so I tried to break it down 
and added times. Keep in mind, these are the notes that coincide with the guitar chords.

0:32
-------------------------------------------------------|
-------------------------------------------------------|
-------------------------------------------------------|
-4-4-4-2-2-2-1-1-1---4-4-4-2-2-2-1-1-1-----------------|

0:48
-------|---------|----------|-------|----------|---------|--------|
-------|---------|----------|-------|----------|---------|--------|
-4-4-4-|6-6-6-6-6|6-6-6-6-6-|-4-4-4-|-6-6-6-6-6|6-6-6-6-6|4-4-4-4-|
-------|---------|----------|-------|----------|---------|--------|

1:07
------------------|
------------------|
--------6-6-6-----|
-6-6-6------------|

1:15
-------------------------------------------------------|
-------------------------------------------------------|
-------------------------------------------------------|
-4-4-4-2-2-2-1-1-1---4-4-4-2-2-2-1-1-1-----------------|

1:31
-------|---------|----------|-------|----------|---------|--------|
-------|---------|----------|-------|----------|---------|--------|
-4-4-4-|6-6-6-6-6|6-6-6-6-6-|-4-4-4-|-6-6-6-6-6|6-6-6-6-6|4-4-4-4-|
-------|---------|----------|-------|----------|---------|--------|

1:51
------------------|
------------------|
--------6-6-6-----|
-6-6-6------------|

2:00
-------------------------------------------------|
-------------------------------------------------|
-------------6-6-6-4-4-4-------------6-6-6-4-4-4-|  X2
-4-4-4-6-6-6-------------4-4-4-6-6-6-------------|

2:29
-----------------------------------------|
-----------------------------------------|
-4-4-4-4-4-4-4-4-4-4-4-4-4-4-4-6-6-6-6-6-|
-----------------------------------------|

2:42
-------------------------------------------------------|
-------------------------------------------------------|
-------------------------------------------------------|
-4-4-4-2-2-2-1-1-1---4-4-4-2-2-2-1-1-1-----------------|

2:55
-------|---------|----------|-------|----------|---------|--------|
-------|---------|----------|-------|----------|---------|--------|
-4-4-4-|6-6-6-6-6|6-6-6-6-6-|-4-4-4-|-6-6-6-6-6|6-6-6-6-6|4-4-4-4-|
-------|---------|----------|-------|----------|---------|--------|

3:15
------------------|
------------------|
--------6-6-6-----|
-6-6-6------------|

3:25
-----------------------------------------------------------------|
-----------------------------------------------------------------|
-4-4-4-4-4-6-6-6-6-4-4-4-4-6-6-6-6-4-4-4-4-6-6-6-6---------------|
---------------------------------------------------6-6-6-6-6-6-6-|

3:40
-----------------------------------------------------------------------------------------|
-----------------------------------------------------------------------------------------|
-4-4-4-4-4-6-6-6-6-4-4-4-4-6-6-6-6-4-4-4-4-6-6-6-6-------------------4-4-4-4-4-4-4-4-4-4-|
---------------------------------------------------6-6-6-6-6-6-6-6-6---------------------|

4:03
---------------------------------------------------------|
---------------------------------------------------------|
---------3-3-3-3---------3-3-3-3---------3-3-3-3-4-4-4-4-|
-4-4-4-4---------4-4-4-4---------4-4-4-4-----------------|

--------------------------------------------|
--------------------------------------------|
--------4-4-4-4-4-4-4-6-6-6-6-6-6-6-6-6-6-6-|
4-4-4-4-------------------------------------|

4:51
-----------------------------------------|
-----------------------------------------|
-4-4-4-4-4-4-4-4-4-4---------------------|
---------------------4-------------------|
            
Submit corrections

comments powered by Disqus
↑ Back to top | Neutral Milk Hotel Bass for Two Headed Boy. Lyrics for acoustic guitar and electric guitar. 1 Tablatures and chords are parodies/interpretations of the original songs. You may use it for private study, scholarship, research or language learning purposes only