» » »

Nerf Herder, 5000 Ways To Die Tabs (ver.1)

Artists:  A B C D E F G H I J K L M N O P Q R S T U V W X Y Z # 

5000 Ways To Die Tabs (ver.1)

Nerf Herder Tabs
 Rating:
4/5 (4 votes)
5000 Ways To Die lessons Tabs too difficult? Try these video lessons and learn fast
                
After Keyboard Intro...

Verse & Pre-Chorus

Guitar 1

E ----------------------------------------------------------------
B ----------------------------------------------------------------
G 7-7-7-7-7---x-x-----------------4-4-4-4-4---x-x-----------------
D 7-7-7-7-7---x-x-7-7-7-7-7---x-x-4-4-4-4-4---x-x-5-5-5-5-5---x-x-
A 5-5-5-5-5---x-x-7-7-7-7-7---x-x-2-2-2-2-2---x-x-5-5-5-5-5---x-x-
E ----------------5-5-5-5-5---x-x-----------------3-3-3-3-3---x-x-  3x

E ----------------------------------------------------------------
B ----------------------------------------------------------------
G 7-7-7-7-7---x-x---------------------------------7~------------7-
D 7-7-7-7-7---x-x-7-7-7-7-7---x-x-5~------------5-7~------------7-
A 5-5-5-5-5---x-x-7-7-7-7-7---x-x-3~------------5-5~------------5-
E ----------------5-5-5-5-5---x-x-3~------------3-----------------

E ----------------------------------------------------------------
B ----------------------------------------------------------------
G ----------------------------------------------------------------
D 5---5---5---5---5---5---5---5---7---7---7---7---7---7---7---7---
A 5---5---5---5---5---5---5---5---7---7---7---7---7---7---7---7---
E 3---3---3---3---3---3---3---3---5---5---5---5---5---5---5---5---

While Guitar 1 is playing above, Guitar 2 plays this:

E ----------------------------------------------------------------
B ----------------------------------------------------------------
G ----------------------------------------------------------------
D 5-------4-------------------------------------------------------
A ----------------7-------5-------7-------5-------4---------------
E ----------------------------------------------------------------

Chorus

E ----------------------------------------------------------------
B ----------------------------------------------------------------
G 4---4---4---4-------------------7---7---7---7-------------------
D 4---4---4---4---5---5---5---5---7---7---7---7---7---7---7---7---
A 2---2---2---2---5---5---5---5---5---5---5---5---7---7---7---7---
E ----------------3---3---3---3-------------------5---5---5---5--- 2x

E ----------------------------------------------------------------
B ----------------------------------------------------------------
G ----------------------------------------------------------------
D 4~--------------5~--------------5---5---5---5---7---7---7---7---
A 4~--------------5~--------------5---5---5---5---7---7---7---7---
E 2~--------------3~--------------3---3---3---3---5---5---5---5---

Post-Chorus

Guitar 1

E ----------------------------------------------------------------
B ----------------------------------------------------------------
G 7---7---7---7-------------------4---4---4---4-------------------
D 7---7---7---7---7---7---7---7---4---4---4---4---5---5---5---5---
A 5---5---5---5---7---7---7---7---2---2---2---2---5---5---5---5---
E ----------------5---5---5---5-------------------3---3---3---3---

E ----------------------------------------------------------------
B ----------------------------------------------------------------
G 7---7---7---7---------------------------------------------------
D 7---7---7---7---7---7---7---7---5---5---5---5---7---7---7---7---
A 5---5---5---5---7---7---7---7---5---5---5---5---7---7---7---7---
E ----------------5---5---5---5---3---3---3---3---5---5---5---5---

While Guitar 1 is playing above, Guitar 2 plays this:

E ----------------------------------------------------------------
B ----------------------------------------------------------------
G ----------------------------------------------------------------
D 7-----------7---7-----------5---4-------2-------4-------2-------
A ----------------------------------------------------------------
E ----------------------------------------------------------------

E ----------------------------------------------------------------
B ----------------------------------------------------------------
G ----------------------------------------------------------------
D ----------------------------------------------------------------
A 5-----------5---5---4---2---4---5---------------5---------------
E ----------------------------------------------------------------

Verse & Pre-Chorus

Guitar 1

E ----------------------------------------------------------------
B ----------------------------------------------------------------
G 7-7-7-7-7---x-x-----------------4-4-4-4-4---x-x-----------------
D 7-7-7-7-7---x-x-7-7-7-7-7---x-x-4-4-4-4-4---x-x-5-5-5-5-5---x-x-
A 5-5-5-5-5---x-x-7-7-7-7-7---x-x-2-2-2-2-2---x-x-5-5-5-5-5---x-x-
E ----------------5-5-5-5-5---x-x-----------------3-3-3-3-3---x-x-  3x

E ----------------------------------------------------------------
B ----------------------------------------------------------------
G 7-7-7-7-7---x-x---------------------------------7~------------7-
D 7-7-7-7-7---x-x-7-7-7-7-7---x-x-5~------------5-7~------------7-
A 5-5-5-5-5---x-x-7-7-7-7-7---x-x-3~------------5-5~------------5-
E ----------------5-5-5-5-5---x-x-3~------------3-----------------

E ----------------------------------------------------------------
B ----------------------------------------------------------------
G ----------------------------------------------------------------
D 5---5---5---5---5---5---5---5---7---7---7---7---7---7---7---7---
A 5---5---5---5---5---5---5---5---7---7---7---7---7---7---7---7---
E 3---3---3---3---3---3---3---3---5---5---5---5---5---5---5---5---

While Guitar 1 is playing above, Guitar 2 plays this:

E ----------------------------------------------------------------
B ----------------------------------------------------------------
G ----------------------------------------------------------------
D 5-------4-------------------------------------------------------
A ----------------7-------5-------7-------5-------4---------------
E ----------------------------------------------------------------

Chorus

E ----------------------------------------------------------------
B ----------------------------------------------------------------
G 4---4---4---4-------------------7---7---7---7-------------------
D 4---4---4---4---5---5---5---5---7---7---7---7---7---7---7---7---
A 2---2---2---2---5---5---5---5---5---5---5---5---7---7---7---7---
E ----------------3---3---3---3-------------------5---5---5---5--- 3x

E ----------------------------------------------------------------
B ----------------------------------------------------------------
G ----------------------------------------------------------------
D 4~--------------5~--------------5---5---5---5---7---7---7---7---
A 4~--------------5~--------------5---5---5---5---7---7---7---7---
E 2~--------------3~--------------3---3---3---3---5---5---5---5---

Post-Chorus

Guitar 1

E ----------------------------------------------------------------
B ----------------------------------------------------------------
G 7---7---7---7-------------------4---4---4---4-------------------
D 7---7---7---7---7---7---7---7---4---4---4---4---5---5---5---5---
A 5---5---5---5---7---7---7---7---2---2---2---2---5---5---5---5---
E ----------------5---5---5---5-------------------3---3---3---3---

E ----------------------------------------------------------------
B ----------------------------------------------------------------
G 7---7---7---7---------------------------------------------------
D 7---7---7---7---7---7---7---7---5---5---5---5---7---7---7---7---
A 5---5---5---5---7---7---7---7---5---5---5---5---7---7---7---7---
E ----------------5---5---5---5---3---3---3---3---5---5---5---5---

While Guitar 1 is playing above, Guitar 2 plays this:

E ----------------------------------------------------------------
B ----------------------------------------------------------------
G 7---------------7-----------------------------------------------
D ------------7---------------7-----------------------------------
A --------------------------------9-------7-------9-----------7---
E ----------------------------------------------------------------

E ----------------------------------------------------------------
B ----------------------------------------------------------------
G ----------------------------------------------------------------
D ----------------------------------------------------------------
A 5-----------5---5---4---2---4---5---------------5---------------
E ----------------------------------------------------------------

End On:

E ----------------------------------------------------------------
B ----------------------------------------------------------------
G 7~--------------------------------------------------------------
D 7~--------------------------------------------------------------
A 5~--------------------------------------------------------------
E ----------------------------------------------------------------
            
Submit corrections

comments powered by Disqus
↑ Back to top | Nerf Herder Tabs for 5000 Ways To Die. Lyrics for acoustic guitar and electric guitar. Tablatures and chords are parodies/interpretations of the original songs. You may use it for private study, scholarship, research or language learning purposes only