» » »

After The Rain Tabs (ver.2)

Artists:  A B C D E F G H I J K L M N O P Q R S T U V W X Y Z # 

After The Rain Tabs (ver.2)

Nelson
Rating:
5/5 (2 votes)

Hard to play? Try these video lessons and learn fast.
                (Intro)
I realized that not everyone has guitar pro so i decided to tab out the intro to this
in my opinion this is one of the catchiest intro riffs in rock, so i was surprised i
find it tabbed anywhere else. After the Rain is written in the unfriendly key Eb, so 
i would tune down my rhythm guitar a whole step so that some of the chords are easier to
but for now i left them in their original form. both guitars are played with heavy 
know how to play them. have fun!


            Ab(add9)                        Eb
Guitar 1:

e|---------|-------------------------------|-------------------------------|
B|---------|3-------4----------------------|-------------------------------|
G|--3---5--|------------3~~~---------------|------------------------3---5--|
D|---------|-------------------------------|-------------------------------|
A|---------|-------------------------------|-------------------------------|
E|---------|-------------------------------|-------------------------------|


Guitar 2:

e|---------|4-------4---4-------4---4------|3-----------3-------3---3---3--|
B|---------|4-------4---4-------4---4------|4-----------4-------4---4---4--|
G|---------|5-------5---5-------5---5------|3-----------3-------3---3---3--|
D|---------|6-------6---6-------6---6------|5-----------5-------5---5---5--|
A|---------|-------------------------------|-------------------------------|
E|---------|-------------------------------|-------------------------------|

            1   &   2   &   3   &   4   &   1   &   2   &   3   &   4   &


  Bb
Guitar 1:
              pinch harmonic
e|-------------------------------|-------------------------------|
B|3-------4---6*-----------------|-------------------------------|
G|-------------------------------|--------------------5---3---5--|
D|-------------------------------|-------------------------------|
A|-------------------------------|-------------------------------|
E|-------------------------------|-------------------------------|


Guitar 2:

e|6-------6---6-------6---6------|6-----------6-------6---6---6--|
B|6-------6---6-------6---6------|6-----------6-------6---6---6--|
G|7-------7---7-------7---7------|7-----------7-------7---7---7--|
D|8-------8---8-------8---6------|8-----------8-------8---8---8--|
A|-------------------------------|-------------------------------|
E|-------------------------------|-------------------------------|

  1   &   2   &   3   &   4   &   1   &   2   &   3   &   4   &


  Ab(add9)                        Eb
Guitar 1:

e|-------------------------------|-------------------------------|
B|3-------4----------------------|-------------------------------|
G|------------3~~~---------------|----------------------------5--|
D|-------------------------------|------------------------8------|
A|-------------------------------|-------------------------------|
E|-------------------------------|-------------------------------|


Guitar 2:

e|4-------4---4-------4---4------|3-----------3-------3---3---3--|
B|4-------4---4-------4---4------|4-----------4-------4---4---4--|
G|5-------5---5-------5---5------|3-----------3-------3---3---3--|
D|6-------6---6-------6---6------|5-----------5-------5---5---5--|
A|-------------------------------|-------------------------------|
E|-------------------------------|-------------------------------|

  1   &   2   &   3   &   4   &   1   &   2   &   3   &   4   &


  Bb
Guitar 1:

e|--------------------13^(15)-13-|(13)~~~------------------------|
B|------------6------------------|-------------------------------|
G|7-------8----------------------|-------------------------------|
D|-------------------------------|-------------------------------|
A|-------------------------------|-------------------------------|
E|-------------------------------|-------------------------------|


Guitar 2:

e|6-------6---6-------6---6------|6-----------6-------6---6---6--|
B|6-------6---6-------6---6------|6-----------6-------6---6---6--|
G|7-------7---7-------7---7------|7-----------7-------7---7---7--|
D|8-------8---8-------8---6------|8-----------8-------8---8---8--|
A|-------------------------------|-------------------------------|
E|-------------------------------|-------------------------------|

  1   &   2   &   3   &   4   &   1   &   2   &   3   &   4   &


the same chord progression (Ab > Eb > Bb) can be found in the verse. it is played a
of 3 times before sliding down to an Fm to start the pre-chorus. please rate too!
            
Hard to play? Try these video lessons and learn fast. | Correct




comments powered by Disqus
↑ Back to top | Tablatures and chords are parodies/interpretations of the original songs. You may use it for private study, scholarship, research or language learning purposes only