» » »

Nelly, Just A Dream Tabs (ver.2)

Artists:  A B C D E F G H I J K L M N O P Q R S T U V W X Y Z # 

Just A Dream Tabs (ver.2)

Nelly Tabs
 Rating:
3/5 (8 votes)
Just A Dream lessons Tabs too difficult? Try these video lessons and learn fast
                Capo First Fret (Whole Song)

Intro (can add throughout song)
e-----------1------5----1-----0h1--5---------------------------1--------------------------1------|
B-------3-----3-----3-----3----------------------------3--------------3-------------1--------1--1|
G----2-----------------------------------------3-------------------------------3-----------------|
D-0-------------------------------------0--0-----0--0----0--0-----0-----0------3-----3-----------|
A------------------------------------------------------------------------------------------------|
E------------------------------------------------------------------------------------------------|

e ------------------0------0--0----------|
B --------------1------1----------1------|
G --2-------0----------------------------|
D ---------------------------------------|
A ------3--------------------------------|
E ---------------------------------------|

e-----------1------5----1-----0h1--5---------------------------1-------------------------1--1----|
B-------3-----3-----3-----3----------------------------3--------------3-------------------------1|
G---2-----------------------------------------3-------------------------------3------2-----------|
D0-------------------------------------0--0-----0--0----0--0-----0------0-----3------------------|
A------------------------------------------------------------------------------------------------|
E------------------------------------------------------------------------------------------------|

e --1------------------------0-------0---0--------------|
B ----------------------1--------1-------------1--------|
G -----2----------0-------------------------------------|
D ------------------------------------------------------|
A -----------3------------------------------------------|
E ------------------------------------------------------|

Verses + Chorus Progression

D Minor, B Flat, F, C

D Minor                B Flat                    F                           C
e ---1---                ---1---                 ---1---                    ---------|
B ---3---                ---3---                 ---1---                    ---1-----|
G ---2---                ---3---                 ---2---                    ---------|
D -------                -------                 ---3---                    ---2-----|
A -------                -------                 -------                    ---3-----|
E -------                -------                 -------                     --------|
            
Submit corrections

comments powered by Disqus
↑ Back to top | Nelly Tabs for Just A Dream. Lyrics for acoustic guitar and electric guitar. Tablatures and chords are parodies/interpretations of the original songs. You may use it for private study, scholarship, research or language learning purposes only