» » »

#1 Tabs (ver.1)

Artists:  A B C D E F G H I J K L M N O P Q R S T U V W X Y Z # 

#1 Tabs (ver.1)

Nelly
Rating:
0/5 (0 votes)

Hard to play? Try these video lessons and learn fast.
                

Tabbing Rap Kicks Ass! heheheheheh

Main Riff:
------------------------------------------------------------------------------
---5-------------5----------5------------5-----5-----5------------------------
-----5---------5---5------5---5--------5-----5-----5--------------------------
-7-----7---5/7-------7--7-------7--5/7-----7-----7----------------------------
------------------------------------------------------------------------------
------------------------------------------------------------------------------
                                                                              
Riff type solo:
------------------------------------------------------------------------------
-8/10\8--10--10-8-8/10\8-10---------------------------------------------------
------------------------------------------------------------------------------
------------------------------------------------------------------------------
------------------------------------------------------------------------------
------------------------------------------------------------------------------
                                                                              
            
Hard to play? Try these video lessons and learn fast. | Correct




comments powered by Disqus
↑ Back to top | Tablatures and chords are parodies/interpretations of the original songs. You may use it for private study, scholarship, research or language learning purposes only