» » »

Till The Morning Comes Bass tabs (ver.1)

Artists:  A B C D E F G H I J K L M N O P Q R S T U V W X Y Z # 

Till The Morning Comes Bass tabs (ver.1)

Neil Young
Rating:
0/5 (0 votes)

Hard to play? Try these video lessons and learn fast.
                Till The Morning Comes
Neil Young

Bass comes in like this:
-------------0-0-----0-0-|
-3-3-3-5-0-0-----0-0-----|
-------------------------|
-------------------------|

Then repeat this:
---------------0-0-----0-0-|
---------5-0-0-----0-0-----|
-3-3-3-3-------------------|
---------------------------|

Easy one.  Peace!
            
Hard to play? Try these video lessons and learn fast. | Correct




comments powered by Disqus
↑ Back to top | Tablatures and chords are parodies/interpretations of the original songs. You may use it for private study, scholarship, research or language learning purposes only