» » »

This Notes For You Bass tabs (ver.1)

Artists:  A B C D E F G H I J K L M N O P Q R S T U V W X Y Z # 

This Notes For You Bass tabs (ver.1)

Neil Young
Rating:
0/5 (0 votes)

Hard to play? Try these video lessons and learn fast.
                This Note's For You
Neil Young

This the main riff. But you can change it as you please.

Intro
G|-----------------------------------|
D|-----------------------------------|
A|-------------3--5--------3-4-------|
E|-0-3-4-5-55-5------5-55-5----0-3-4-|

Main riff 1
G|------------------------------------|
D|------------------------------------|
A|-------3(3)--5--------------3(3)--5-|
E|-5-55-5---------0-3-4-5-55-5--------|

Main riff 2
G|----------------------------------|
D|----------------------------------|
A|-------2-3--5--------------2-3--5-|
E|-5-55----------0-3-4-5-55---------|

If you wanna add a little fun, after the breakdown, near the end of "This Note's For 
slide up...
G|----------------------------------------|
D|----------------------------------------|
A|----------2-3--5----------------2-3--5--|
E|-12/5-55----------0-3-4-5-55------------|

-jefferson
            
Hard to play? Try these video lessons and learn fast. | Correct




comments powered by Disqus
↑ Back to top | Tablatures and chords are parodies/interpretations of the original songs. You may use it for private study, scholarship, research or language learning purposes only