» » »

Neil Young, See The Sky About To Rain Bass tabs (ver.1)

Artists:  A B C D E F G H I J K L M N O P Q R S T U V W X Y Z # 

See The Sky About To Rain Bass tabs (ver.1)

Neil Young Tabs
Rating:
0/5 (0 votes)
See The Sky About To Rain lessons Tabs too difficult? Try these video lessons and learn fast
                Standard Tuning

Bass comes in after 4 bars
|----------------------------------|----------------------------------|
|----------------------------------|----------------------------------|
|----------------------------------|----------------------------------|
|----------------------------------|----------------------------------|

|----------------------------------|----------------------------------|
|----------------------------------|----------------------------------|
|----------------------------------|----------------------------------|
|----------------------------------|----------------------------------|

See the sky about to rain..
|----------------------------------|----------------------------------|
|----------------------------------|----------------------------------|
|-3---------------5----------------|----------------------------------|
|----------------------------------|-3--------------------------------|

|----------------------------------|----------------------------------|
|----------------------------------|----------------------------------|
|-3---------------5----------------|----------------------------------|
|----------------------------------|-3------------------------------3-|

|----------------------------------|----------------------------------|
|----------------------------------|----------------------------------|
|-3---------------5----------------|----------------------------------|
|----------------------------------|-3------------------------------3-|

|----------------------------------|----------------------------------|
|----------------------------------|----------------------------------|
|-3---------------5----------------|----------------------------------|
|----------------------------------|-3------------------------------3-|

Signals curling on an open plain..
|----------------------------------|----------------------------------|
|----------------------------------|----------------------------------|
|-3---------------3-------------3--|-5---------------5----------------|
|----------------------------------|----------------------------------|

|----------------------------------|----------------------------------|
|----------------------------------|----------------------------------|
|-----------------5----------------|-3--------------------------------|
|-3--------------------------------|--------------------------------3-|

See the sky about to rain..
|----------------------------------|----------------------------------|
|----------------------------------|----------------------------------|
|-3---------------3----------------|-5--------------5--5--------------|
|----------------------------------|----------------------------------|

(interlude)
|----------------------------------|----------------------------------|
|----------------------------------|----------------------------------|
|----------------------------------|----------------------------------|
|-3--------------3--3--------------|-3--------------3--3--------------|

|----------------------------------|----------------------------------|
|----------------------------------|----------------------------------|
|-5--------------5--5--------------|-5--------------5--5--------------|
|----------------------------------|----------------------------------|

|----------------------------------|----------------------------------|
|----------------------------------|----------------------------------|
|-3--3-----------3--------3--------|-3--3---------3-------------------|
|----------------------------------|----------------------------------|

Some are bound for happiness..
|----------------------------------|----------------------------------|
|----------------------------------|----------------------------------|
|-3---------------5----------------|----------------------------------|
|----------------------------------|-3------------------------------3-|

|----------------------------------|----------------------------------|
|----------------------------------|----------------------------------|
|-3---------------5----------------|----------------------------------|
|----------------------------------|-3--------------------------------|

|----------------------------------|----------------------------------|
|----------------------------------|----------------------------------|
|-3---------------5----------------|----------------------------0--2--|
|----------------------------------|-3--------------------------------|

|----------------------------------|----------------------------------|
|----------------------------------|----------------------------------|
|-3---------------5----------------|----------------------------------|
|----------------------------------|-3--------------------------------|

See the sky about to rain..
|----------------------------------|----------------------------------|
|----------------------------------|-----------------2----------------|
|-3---------------5----------------|----------------------------------|
|----------------------------------|-3--------------------------------|

|----------------------------------|----------------------------------|
|----------------------------------|----------------------------------|
|-3---------------5----------------|--------------------------2-------|
|----------------------------------|-3-------------3--5---------------|

|----------------------------------|----------------------------------|
|----------------------------------|----------------------------------|
|-3---------------5----------------|----------------------------0--2--|
|----------------------------------|-3---------------0----------------|

|----------------------------------|----------------------------------|
|----------------------------------|----------------------------------|
|-3---------------5----------------|----------------------------0--2--|
|----------------------------------|-3----------------------3---------|

Signals curling on an open plain..
|----------------------------------|----------------------------------|
|----------------------------------|----------------------------------|
|-3---------------3----------------|-5---------------5----------------|
|----------------------------------|----------------------------------|

|----------------------------------|----------------------------------|
|----------------------------------|----------------------------------|
|-----------------5----------------|-3--------------------------------|
|-3--------------------------------|----------------------------------|

See the sky about to rain..
|----------------------------------|----------------------------------|
|----------------------------------|----------------------------------|
|-3---------------3----------------|-5----------------5--------5------|
|----------------------------------|----------------------------------|

(Interlude)
|----------------------------------|----------------------------------|
|----------------------------------|----------------------------------|
|----------------------------------|----------------------------------|
|-3--------------3--3--------------|-3--------------3--3-------------|

|----------------------------------|----------------------------------|
|----------------------------------|----------------------------------|
|-5--------------5--5--------------|-5--------------5--5--------------|
|----------------------------------|----------------------------------|

|----------------------------------|----------------------------------|
|----------------------------------|----------------------------------|
|-3--3----------3------3-----------|-3--3------------3----------------|
|----------------------------------|----------------------------------|

|----------------------------------|----------------------------------|
|----------------------------------|----------------------------------|
|----------------------------------|----------------------------------|
|----------------------------------|----------------------------------|

|----------------------------------|----------------------------------|
|----------------------------------|----------------------------------|
|----------------------------------|----------------------------------|
|----------------------------------|--------------------------------3-|

|----------------------------------|----------------------------------|
|----------------------------------|------------2--2------------------|
|-3--------------5--5--------------|-2--------------------------------|
|----------------------------------|--------------------------------3-|

|----------------------------------|----------------------------------|
|----------------------------------|----------------------------------|
|-3--------------5--5--------------|----------------------------------|
|----------------------------------|-5----------3--3----------------3-|

I was down in Dixieland..
|----------------------------------|----------------------------------|
|----------------------------------|------------2--2------------------|
|-3--------------5--5--------------|-2--------------------------------|
|----------------------------------|--------------------------------3-|

|----------------------------------|----------------------------------|
|----------------------------------|----------------------------------|
|-3--------------5--5--------------|----------------------------------|
|----------------------------------|-5----------3--3----------------3-|

|----------------------------------|----------------------------------|
|----------------------------------|------------2--2------------------|
|-3--------------5--5--------------|-2--------------------------------|
|----------------------------------|--------------------------------3-|

|----------------------------------|----------------------------------|
|----------------------------------|----------------------------------|
|-3--------------5--5--------------|----------------------------------|
|----------------------------------|-5----------3--3------------------|

See the sky about to rain..
|----------------------------------|----------------------------------|
|----------------------------------|----------------------------------|
|-3---------------3--------------3-|-5---------------5----------------|
|----------------------------------|----------------------------------|

|----------------------------------|----------------------------------|
|----------------------------------|----------------------------------|
|----------------------------------|---------------------------2------|
|-3---------------------------------|-------------------3---5----------|

Outro
|----------------------------------|----------------------------------|
|----------------------------------|----------------------------------|
|-3---------------3--------------3-|-5-----------------5------------5-|
|----------------------------------|----------------------------------|

|----------------------------------|----------------------------------|
|----------------------------------|-2--2-----------------------------|
|-2-------------2--2---------------|----------------------------------|
|----------------------------------|-----------------------------0----|

|----------------------------------|----------------------------------|
|----------------------------------|----------------------------------|
|-3-------------3--3---------------|-5--------------5--5--------------|
|----------------------------------|----------------------------------|

|----------------------------------|----------------------------------|
|----------------------------------|-2------2---2-----2---2-----0-----|
|-2-------------2--2-------------2-|----------------------------------|
|----------------------------------|----------------------------------|

|----------------------------------|----------------------------------|
|----------------------------------|----------------------------------|
|-3---------------3----------------|-5--------------5--5--------------|
|----------------------------------|----------------------------------|

|----------------------------------|---------------------------0------|
|----------------------------------|-2-------------------2------------|
|-2-------------2--2------------2--|----------------------------------|
|----------------------------------|----------------------------------|

|----------------------------------|--------------------7-------------|
|----------------------------------|----------------7----------7------|
|-3---------------3----------------|-5--------------------------------|
|----------------------------------|----------------------------------|

|--------------------4-------------|----------------------------------|
|----------------4----------4------|-----------------------------2----|
|-2--------------------------------|-----------------0--2----2--------|
|----------------------------------|-0--2-----3-----------------------|

|----------------------------------|--------------------7-------------|
|----------------------------------|----------------7----------7------|
|-3---------------3----------------|-5--------------------------------|
|----------------------------------|----------------------------------|

|----------------------------------|----------------------------------|
|---------0---------2--------5-----|-2--------0-----------------------|
|-2--------------------------------|------------------0-------2-------|
|----------------------------------|----------------------------------|

Repeat outro ad lib to fade out
            

comments powered by Disqus
↑ Back to top | Neil Young Bass for See The Sky About To Rain. Lyrics for acoustic guitar and electric guitar. Tablatures and chords are parodies/interpretations of the original songs. You may use it for private study, scholarship, research or language learning purposes only