» » »

Mellow My Mind Bass tabs (ver.1)

Artists:  A B C D E F G H I J K L M N O P Q R S T U V W X Y Z # 

Mellow My Mind Bass tabs (ver.1)

Neil Young
Rating:
0/5 (0 votes)

Hard to play? Try these video lessons and learn fast.
                Standard Tuning

Intro
|----------------------------------|---------------------------------|
|----------------------------------|---------------------------------|
|----------------------------------|--------------------------2---4--|
|----------------------------------|-----------5---------------------|

|----------------------------------|---------------------------------|
|----------------------------------|---------------------------------|
|-5---------5----------------------|--------------------------0---2--|
|---------------------------0---2--|-3---------3---------------------|

|----------------------------------|---------------------------------|
|----------------------------------|---------------------------------|
|-3---------------2----------------|--------------------------2---4--|
|----------------------------------|-5---------5---------------------|

|----------------------------------|---------------------------------|
|---------7------------------------|---------------------------------|
|-5------------5-------------------|--------------------------0---2--|
|---------------------------0---2--|-3---------3---------------------|

'Baby mellow my mind..'
|----------------------------------|---------------------------------|
|----------------------------------|---------------------------------|
|-3---------------2----------------|---------------------------------|
|----------------------------------|-5---------5------5--------------|

|----------------------------------|---------------------------------|
|---------7------------------------|---------------------------------|
|-5------------5-------------------|--------------------------0---2--|
|---------------------------0---2--|-3---------3---------------------|

|----------------------------------|---------------------------------|
|----------------------------------|---------------------------------|
|-3---------------2----------------|------------------------------4--|
|----------------------------------|-5---------5------/7-------------|

|----------------------------------|---------------------------------|
|----------------------------------|---------------------------------|
|-5---------5----------------------|---------------------------------|
|---------------------------0---2--|-3--------------3----------------|

'I've been down the road..'
|----------------------------------|---------------------------------|
|-------------------------3/5------|---------------------------------|
|-3---------------3----------------|-3--------------3----------------|
|----------------------------------|-------------------------3-------|

|----------------------------------|-----------4-------/9------------|
|-3---------------3-------3--------|-2-------------------------------|
|----------------------------------|---------------------------------|
|----------------------------------|---------------------------------|

|----------------------------------|---------------------------------|
|-7---------------5----------------|-3----------3-----3----------3---|
|----------------------------------|---------------------------------|
|----------------------------------|---------------------------------|

|----------------------------------|---------------------------------|
|----------------------------------|-5---------7---------------------|
|-5-----------------------3/5------|---------------------------------|
|----------------------------------|--------------------------5---7--|

'Something so hard to find..'
|----------------------------------|---------------------------------|
|----------------------------------|---------------------------------|
|-3---------------2----------------|--------------------------2---4--|
|----------------------------------|-5-------5---5-------------------|

|----------------------------------|---------------------------------|
|----------------------------------|---------------------------------|
|-5----------5---------------------|--------------------------0---2--|
|----------------------0--------2--|-3---------3---------------------|

Harmonica solo
|----------------------------------|---------------------------------|
|----------------------------------|---------------------------------|
|-3---------------2----------------|--------------------------2---4--|
|----------------------------------|-5-------5---5-------------------|

|----------------------------------|---------------------------------|
|----------------------------------|---------------------------------|
|-5----------5---------------------|--------------------------0---2--|
|---------------------------0---2--|-3---------3---------------------|

|----------------------------------|---------------------------------|
|----------------------------------|---------------------------------|
|-3---------------2-------------2--|--------------------------2---4--|
|----------------------------------|-5-------5---5-----5-------------|

|----------------------------------|---------------------------------|
|--------7-------------------------|---------------------------------|
|-5-----------5-----5--------------|------------------------------2--|
|---------------------------0---2--|-3---------3--3---3--------------|

'I've been down the road..'
|----------------------------------|---------------------------------|
|-------------------------3/5------|---------------------------------|
|-3---------------3----------------|-3--------------3----------------|
|----------------------------------|--------------------------3------|

|----------------------------------|-----------4-------/9------------|
|-3---------------3------3---------|-2-------------------------------|
|----------------------------------|---------------------------------|
|----------------------------------|---------------------------------|

|----------------------------------|---------------------------------|
|-7---------------5----------------|-3--------------3---------3------|
|----------------------------------|---------------------------------|
|----------------------------------|---------------------------------|

|----------------------------------|---------------------------------|
|----------------------------------|-5---------7---------------------|
|-5-----------------------3/5------|---------------------------------|
|----------------------------------|--------------------------5---7--|

'Baby mellow my mind..'
|----------------------------------|---------------------------------|
|----------------------------------|---------------------------------|
|-3---------------2----------------|--------------------------2---4--|
|-------------------------------5--|---5----------5------------------|

|----------------------------------|---------------------------------|
|----------------------------------|---------------------------------|
|-5----------5----5----------------|--------------------------0---2--|
|---------------------------0---2--|-3---------3---------------------|

|----------------------------------|---------------------------------|
|----------------------------------|---------------------------------|
|-3---------------2----------------|--------------------------2---4--|
|----------------------------------|-5---------5---------------------|

|----------------------------------|---------------------------------|
|----------------------------------|---------------------------------|
|-5----------5---------------------|---------------------------------|
|---------------------------0---2--|-3-------------3-----------------|

|----------------------------------|---------------------------------|
|----------------------------------|---------------------------------|
|-3--------------------------------|---------------------------------|
|----------------------------------|---------------------------------|
            
Hard to play? Try these video lessons and learn fast. | Correct




comments powered by Disqus
↑ Back to top | Tablatures and chords are parodies/interpretations of the original songs. You may use it for private study, scholarship, research or language learning purposes only