» » »

Lookout Joe Bass tabs (ver.1)

Artists:  A B C D E F G H I J K L M N O P Q R S T U V W X Y Z # 

Lookout Joe Bass tabs (ver.1)

Neil Young
Rating:
0/5 (0 votes)

Hard to play? Try these video lessons and learn fast.
                Standard Tuning

Intro
|----------------------------------|---------------------------------|
|----------------------------------|---------------------------------|
|----------------------------------|--5------------------------------|
|--5--------------5---5------------|--------------5------------------|

|----------------------------------|---------------------------------|
|----------------------------------|---------------------------------|
|--3-----------2-------------------|--5------------------------------|
|----------------------------------|--------------5------------------|

|----------------------------------|---------------------------------|
|----------------------------------|---------------------------------|
|----------------------------------|--5------------------------------|
|--5--------------5---5------------|--------------5------------------|

|----------------------------------|---------------------------------|
|----------------------------------|---------------------------------|
|--3-----------2-------------------|--5------------------------------|
|----------------------------------|------------3-/-5----------------|

Verse
|----------------------------------|---------------------------------|
|----------------------------------|---------------------------------|
|----------------------------------|--5------------------------------|
|--5--------------5---5------------|--------------5------------------|

|----------------------------------|---------------------------------|
|----------------------------------|---------------------------------|
|--3-----------2-------------------|--5------------------------------|
|----------------------------------|--------------5------------------|

|----------------------------------|---------------------------------|
|----------------------------------|---------------------------------|
|----------------------------------|--5------------------------------|
|--5--------------5---5------------|--------------5------------------|

|----------------------------------|---------------------------------|
|----------------------------------|---------------------------------|
|--3-----------2-------------------|--5------------------------------|
|----------------------------------|--------------5------------5-5-5-|

Chorus
|----------------------------------|---------------------------------|
|----------------------------------|---------------------------------|
|-------------------------------4--|--5------------------------------|
|-5---5---5---5----5---5---7-------|--------------5------------------|

|----------------------------------|---------------------------------|
|----------------------------------|---------------------------------|
|--3-----------2-------------------|--5------------------------------|
|----------------------------------|--------------5------------------|

|----------------------------------|---------------------------------|
|----------------------------------|---------------------------------|
|--3-----------2-------------------|--5------------------------------|
|----------------------------------|--------------5------------------|

Verse
|----------------------------------|---------------------------------|
|----------------------------------|---------------------------------|
|----------------------------------|--5------------------------------|
|--5--------------5---5------------|--------------5------------------|

|----------------------------------|---------------------------------|
|----------------------------------|---------------------------------|
|--3-----------2-------------------|--5------------------------------|
|----------------------------------|--------------5------------------|

|----------------------------------|---------------------------------|
|----------------------------------|---------------------------------|
|----------------------------------|--5------------------------------|
|--5--------------5---5------------|--------------5------------------|

|----------------------------------|---------------------------------|
|----------------------------------|---------------------------------|
|--3-----------2-------------------|--5------------------------------|
|----------------------------------|--------------5------------5-5-5-|

Chorus
|----------------------------------|---------------------------------|
|----------------------------------|---------------------------------|
|-------------------------------4--|--5------------------------------|
|-5----5----5----5---------7-------|--------------5------------------|

|----------------------------------|---------------------------------|
|----------------------------------|---------------------------------|
|--3-----------2-------------------|--5------------------------------|
|----------------------------------|--------------5------------------|

|----------------------------------|---------------------------------|
|----------------------------------|---------------------------------|
|--3-----------2-------------------|--5------------------------------|
|----------------------------------|--------------5------------------|

Solo
|----------------------------------|---------------------------------|
|----------------------------------|---------------------------------|
|----------------------------------|--5------------------------------|
|--5--------------5---5----------5-|--------------5------------------|

|----------------------------------|---------------------------------|
|----------------------------------|---------------------------------|
|--3-----------2-------------------|--5------------------------------|
|----------------------------------|--------------5------------------|

|----------------------------------|---------------------------------|
|----------------------------------|---------------------------------|
|----------------------------------|--5------------------------------|
|--5--------------5---5------------|--------------5------------------|

|----------------------------------|---------------------------------|
|----------------------------------|---------------------------------|
|--3-----------2-------------------|--5------------------------------|
|----------------------------------|-----------3/-5------------5---5-|

Interlude ('Glory hallelujah..')
|----------------------------------|---------------------------------|
|----------------------------------|---------------------------------|
|--2-----------2-----------------2-|---------------------------------|
|----------------------------------|--0-----------0------------------|

|----------------------------------|---------------------------------|
|----------------------------------|-------------------------------2-|
|--2-----------2-------------------|---------------------------------|
|----------------------------------|--0-----------0------------------|

|----------------------------------|---------------------------------|
|----------------------------------|---------------------------------|
|--5-----------5----------------5--|--2-----------2------------------|
|----------------------------------|----------------------------2----|

|----------------------------------|--2------------------------------|
|----------------------------------|---------------------------------|
|--2--------------2--------2-------|---------------------------------|
|----------------------------------|---------------------------------|

|----------------------------------|---------------------------------|
|----------------------------------|---------------------------------|
|--5-------------------------------|--3-----------2------------------|
|--------------5-------------------|---------------------------------|

|----------------------------------|---------------------------------|
|----------------------------------|---------------------------------|
|--5-------------------------------|---------------------------------|
|--------------5-------------------|--5--------------5---5-----------|

|----------------------------------|---------------------------------|
|----------------------------------|---------------------------------|
|--5-------------------------------|--3-----------2------------------|
|--------------5-------------------|---------------------------------|

|----------------------------------|
|----------------------------------|
|--5-------------------------------|
|--------------5-------------------|


Verse
|----------------------------------|---------------------------------|
|----------------------------------|---------------------------------|
|----------------------------------|--5------------------------------|
|--5--------------5---5------------|--------------5------------------|

|----------------------------------|---------------------------------|
|----------------------------------|---------------------------------|
|--3-----------2-------------------|--5------------------------------|
|----------------------------------|--------------5------------------|

|----------------------------------|---------------------------------|
|----------------------------------|---------------------------------|
|----------------------------------|--5------------------------------|
|--5--------------5---5------------|--------------5------------------|

|----------------------------------|---------------------------------|
|----------------------------------|---------------------------------|
|--3-----------2-------------------|--5------------------------------|
|----------------------------------|--------------5------------5-5-5-|

Chorus
|----------------------------------|---------------------------------|
|----------------------------------|---------------------------------|
|-------------------------------4--|--5------------------------------|
|-5----5----5----5---------7-------|--------------5------------------|

|----------------------------------|---------------------------------|
|----------------------------------|---------------------------------|
|--3-----------2-------------------|--5------------------------------|
|----------------------------------|--------------5------------------|

|----------------------------------|---------------------------------|
|----------------------------------|---------------------------------|
|--3-----------2-------------------|--5------------------------------|
|----------------------------------|--------------5------------------|

|----------------------------------|---------------------------------|
|----------------------------------|---------------------------------|
|--3-----------2-------------------|--5------------------------------|
|----------------------------------|--------------5------------------|
            
Hard to play? Try these video lessons and learn fast. | Correct




comments powered by Disqus
↑ Back to top | Tablatures and chords are parodies/interpretations of the original songs. You may use it for private study, scholarship, research or language learning purposes only