» » »

Looking For A Love Bass tabs (ver.1)

Artists:  A B C D E F G H I J K L M N O P Q R S T U V W X Y Z # 

Looking For A Love Bass tabs (ver.1)

Neil Young
Rating:
0/5 (0 votes)

Hard to play? Try these video lessons and learn fast.
                Standard Tuning 

Intro
|------------------------------------|-----------------------------------|
|------------------------------------|-----------------------------------|
|-7----------------------------------|-7---------------------------------|
|--------------------7---------------|-------------------7---------------|

|------------------------------------|-----------------------------------|
|------------------------------------|-----------------------------------|
|-7----------------------------------|-7---------------------------------|
|--------------------7---------------|-------------------7---------------|

Verse 1
|------------------------------------|-----------------------------------|
|------------------------------------|-----------------------------------|
|-7----------------------------------|-7---------------------------------|
|--------------------7---------------|-------------------7---------------|

|------------------------------------|-----------------------------------|
|------------------------------------|-----------------------------------|
|-7----------------------------------|-7---------------------------------|
|--------------------7---------------|-------------------7---------------|

|------------------------------------|-----------------------------------|
|------------------------------------|-----------------------------------|
|-7----------------------------------|-7---------------------------------|
|--------------------7---------------|-------------------7---------------|

|------------------------------------|-----------------------------------|
|------------------------------------|-----------------------------------|
|--------------------9---------------|-------------------9---------------|
|-7----------------------------------|-7---------------------------------|

|------------------------------------|-----------------------------------|
|------------------------------------|-----------------------------------|
|-7----------------------------------|-7---------------------------------|
|--------------------7---------------|-------------------7---------------|

|------------------------------------|-----------------------------------|
|-7----------------------------------|-7---------------------------------|
|--------------------7---------------|-------------------7---------------|
|------------------------------------|-----------------------------------|

|------------------------------------|-----------------------------------|
|------------------------------------|-----------------------------------|
|-7----------------------------------|-------------------9---------------|
|--------------------7---------------|-7---------------------------------|

|------------------------------------|-----------------------------------|
|------------------------------------|-----------------------------------|
|-7----------------------------------|-7---------------------------------|
|--------------------7---------------|-------------------7---------------|

Verse 2
|------------------------------------|-----------------------------------|
|------------------------------------|-----------------------------------|
|-7----------------------------------|-7---------------------------------|
|--------------------7---------------|-------------------7---------------|

|------------------------------------|-----------------------------------|
|------------------------------------|-----------------------------------|
|-7----------------------------------|-7---------------------------------|
|--------------------7---------------|-------------------7---------------|

|------------------------------------|-----------------------------------|
|------------------------------------|-----------------------------------|
|-7----------------------------------|-7---------------------------------|
|--------------------7---------------|-------------------7---------------|

|------------------------------------|-----------------------------------|
|------------------------------------|-----------------------------------|
|--------------------9---------------|-------------------9---------------|
|-7----------------------------------|-7---------------------------------|

|------------------------------------|-----------------------------------|
|------------------------------------|-----------------------------------|
|-7----------------------------------|-7---------------------------------|
|--------------------7---------------|-------------------7---------------|

|------------------------------------|-----------------------------------|
|-7----------------------------------|-7---------------------------------|
|--------------------7---------------|-------------------7---------------|
|------------------------------------|-----------------------------------|

|------------------------------------|-----------------------------------|
|------------------------------------|-----------------------------------|
|-7----------------------------------|-------------------9---------------|
|--------------------7---------------|-7---------------------------------|

|------------------------------------|-----------------------------------|
|------------------------------------|-----------------------------------|
|-7----------------------------------|-7---------------------------------|
|--------------------7---------------|-------------------7---------------|

Chorus
|------------------------------------|-----------------------------------|
|------------------------------------|-----------------------------------|
|-7------------------7---------------|-----------------------------------|
|------------------------------------|-7-----------------7---------------|

|------------------------------------|-----------------------------------|
|------------------------------------|-----------------------------------|
|------------------------------------|---------------------------6-------|
|-9------------------9---------------|-9-----------------9---------------|

|------------------------------------|-----------------------------------|
|------------------------------------|-----------------------------------|
|-7------------------7---------------|-----------------------------------|
|------------------------------------|-7-----------------7---------------|

|------------------------------------|-----------------------------------|
|------------------------------------|-----------------------------------|
|------------------------------------|-----------------------------------|
|-5------------------5---------------|-5-----------------5---5-----------|

|------------------------------------|-----------------------------------|
|------------------------------------|-----------------------------------|
|-4------------------4---------------|-4-----------------4---------------|
|------------------------------------|-----------------------------------|

|------------------------------------|-----------------------------------|
|------------------------------------|-----------------------------------|
|-2------------------2---------------|-2-----------------2---------------|
|------------------------------------|-----------------------------------|

|------------------------------------|-----------------------------------|
|------------------------------------|-----------------------------------|
|------------------------------------|-----------------------------------|
|-5------------------5---------------|-4-----------------4---------------|

|------------------------------------|-----------------------------------|
|------------------------------------|-----------------------------------|
|------------------------------------|-----------------------------------|
|-2------------------2---------------|-2---------------------------------|

Solo
|------------------------------------|-----------------------------------|
|------------------------------------|-----------------------------------|
|-7----------------------------------|-7---------------------------------|
|--------------------7---------------|-------------------7---------------|

|------------------------------------|-----------------------------------|
|------------------------------------|-----------------------------------|
|-7----------------------------------|-7---------------------------------|
|--------------------7---------------|-------------------7---------------|

|------------------------------------|-----------------------------------|
|------------------------------------|-----------------------------------|
|-7----------------------------------|-7---------------------------------|
|--------------------7---------------|-------------------7---------------|

|------------------------------------|-----------------------------------|
|------------------------------------|-----------------------------------|
|--------------------9---------------|-------------------9---------------|
|-7----------------------------------|-7---------------------------------|

|------------------------------------|-----------------------------------|
|------------------------------------|-----------------------------------|
|-7----------------------------------|-7---------------------------------|
|--------------------7---------------|-------------------7---------------|

|------------------------------------|-----------------------------------|
|-7----------------------------------|-7---------------------------------|
|--------------------7---------------|-------------------7---------------|
|------------------------------------|-----------------------------------|

|------------------------------------|-----------------------------------|
|------------------------------------|-----------------------------------|
|-7----------------------------------|-------------------9---------------|
|--------------------7---------------|-7---------------------------------|

|------------------------------------|-----------------------------------|
|------------------------------------|-----------------------------------|
|-7----------------------------------|-7---------------------------------|
|--------------------7---------------|-------------------7---------------|

Chorus
|------------------------------------|-----------------------------------|
|------------------------------------|-----------------------------------|
|-7------------------7---------------|-----------------------------------|
|------------------------------------|-7-----------------7---------------|

|------------------------------------|-----------------------------------|
|------------------------------------|-----------------------------------|
|------------------------------------|---------------------------6-------|
|-9------------------9---------------|-9-----------------9---------------|

|------------------------------------|-----------------------------------|
|------------------------------------|-----------------------------------|
|-7------------------7---------------|-----------------------------------|
|------------------------------------|-7-----------------7---------------|

|------------------------------------|-----------------------------------|
|------------------------------------|-----------------------------------|
|------------------------------------|-----------------------------------|
|-5------------------5---------------|-5-----------------5---5-----------|

|------------------------------------|-----------------------------------|
|------------------------------------|-----------------------------------|
|-4------------------4---------------|-4-----------------4---------------|
|------------------------------------|-----------------------------------|

|------------------------------------|-----------------------------------|
|------------------------------------|-----------------------------------|
|-2------------------2---------------|-2-----------------2---------------|
|------------------------------------|-----------------------------------|

|------------------------------------|-----------------------------------|
|------------------------------------|-----------------------------------|
|------------------------------------|-----------------------------------|
|-5------------------5---------------|-4-----------------4---------------|

|------------------------------------|-----------------------------------|
|------------------------------------|-----------------------------------|
|------------------------------------|-----------------------------------|
|-2------------------2---------------|-2---------------------------------|

Verse 3
|------------------------------------|-----------------------------------|
|------------------------------------|-----------------------------------|
|-7----------------------------------|-7---------------------------------|
|--------------------7---------------|-------------------7---------------|

|------------------------------------|-----------------------------------|
|------------------------------------|-----------------------------------|
|-7----------------------------------|-7---------------------------------|
|--------------------7---------------|-------------------7---------------|

|------------------------------------|-----------------------------------|
|------------------------------------|-----------------------------------|
|-7----------------------------------|-7---------------------------------|
|--------------------7---------------|-------------------7---------------|

|------------------------------------|-----------------------------------|
|------------------------------------|-----------------------------------|
|--------------------9---------------|-------------------9---------------|
|-7----------------------------------|-7---------------------------------|

|------------------------------------|-----------------------------------|
|------------------------------------|-----------------------------------|
|-7----------------------------------|-7---------------------------------|
|--------------------7---------------|-------------------7---------------|

|------------------------------------|-----------------------------------|
|-7----------------------------------|-7---------------------------------|
|--------------------7---------------|-------------------7---------------|
|------------------------------------|-----------------------------------|

|------------------------------------|-----------------------------------|
|------------------------------------|-----------------------------------|
|-7----------------------------------|-------------------9---------------|
|--------------------7---------------|-7---------------------------------|

|------------------------------------|-----------------------------------|
|------------------------------------|-----------------------------------|
|-7----------------------------------|-7---------------------------------|
|--------------------7---------------|-------------------7---------------|

Outro/Chorus
|------------------------------------|-----------------------------------|
|------------------------------------|-----------------------------------|
|-7------------------7---------------|-----------------------------------|
|------------------------------------|-7-----------------7---------------|

|------------------------------------|-----------------------------------|
|------------------------------------|-----------------------------------|
|------------------------------------|---------------------------6-------|
|-9------------------9---------------|-9-----------------9---------------|

|------------------------------------|-----------------------------------|
|------------------------------------|-----------------------------------|
|-7------------------7---------------|-----------------------------------|
|------------------------------------|-7-----------------7---------------|

|------------------------------------|-----------------------------------|
|------------------------------------|-----------------------------------|
|------------------------------------|-----------------------------------|
|-5------------------5---------------|-5-----------------5---5-----------|

|------------------------------------|-----------------------------------|
|------------------------------------|-----------------------------------|
|-4------------------4---------------|-4-----------------4---------------|
|------------------------------------|-----------------------------------|

|------------------------------------|-----------------------------------|
|------------------------------------|-----------------------------------|
|-2------------------2---------------|-2-----------------2---------------|
|------------------------------------|-----------------------------------|

|------------------------------------|-----------------------------------|
|------------------------------------|-----------------------------------|
|------------------------------------|-----------------------------------|
|-5------------------5---------------|-4-----------------4---------------|

|------------------------------------|-----------------------------------|
|------------------------------------|-----------------------------------|
|------------------------------------|-----------------------------------|
|-2------------------2---------------|-2---------------------------------|
            
Hard to play? Try these video lessons and learn fast. | Correct




comments powered by Disqus
↑ Back to top | Tablatures and chords are parodies/interpretations of the original songs. You may use it for private study, scholarship, research or language learning purposes only