» » »

Fuckin Up Bass tabs (ver.1)

Artists:  A B C D E F G H I J K L M N O P Q R S T U V W X Y Z # 

Fuckin Up Bass tabs (ver.1)

Neil Young
Rating:
0/5 (0 votes)

Hard to play? Try these video lessons and learn fast.
                Also covered by:
Pearl Jam

This is tabbed in standard D using all the correct notes.

intro & fill between verses

F|-------------------------------|
C|-------------------------------|
G|-------------------------------|
D|--00-5-3--0-5-3--0-5-3--03333--|

verse
F|------------------------------------|
C|------------------00000000----------|
G|----------22222222------------------|
D|--00000000----------------3h5-3h55--|

chorus
F|------------------|
C|------------------|
G|-------2---2---0--|
D|--0---------------|

guitar solo
F|----------------------------------------------------------------------|
C|----------------------------------------------------------------------|
G|--5555555555555555-3333333333333333-00000000000000000000000000000000--|
D|----------------------------------------------------------------------|

Theres the notes, very simple, I know u can figure out the order.
Pearl Jam really rocked this one!
            
Hard to play? Try these video lessons and learn fast. | Correct




comments powered by Disqus
↑ Back to top | Tablatures and chords are parodies/interpretations of the original songs. You may use it for private study, scholarship, research or language learning purposes only