» » »

Neil Young, Dont Cry No Tears Bass tabs (ver.1)

Artists:  A B C D E F G H I J K L M N O P Q R S T U V W X Y Z # 

Dont Cry No Tears Bass tabs (ver.1)

Neil Young Tabs
 Rating:
4/5 (4 votes)
Dont Cry No Tears lessons Tabs too difficult? Try these video lessons and learn fast
                Don't Cry No Tears
Neil Young & Crazy Horse
Bass Tab
Original Bassist: Billy Talbot

Tempo=112BPM, 4/4 Time

Intro

|--------------|--------------|--------------|---------------|
|-------7-7----|-------7---7--|-------7-7----|------7--7-----|
|-----7------7-|-----7--------|-----7------7-|----7-------7--|
|-5------------|-5-5----------|-5------------|-5-------------|

Chorus and Verse

|--------------|--------------|--------------|---------------|
|--------------|--------------|--------------|---------------|
|--------------|-5--5--5--5-7-|----------5h7-|-----------5-7-|
|-5--5--5--5h7-|--------------|-5--5---7-----|-5--5--5-7-----|

|---------------|---------------|---------------|---------------|
|-----------5-7-|-----------7---|-----------7---|-----------4h7-|
|-5--5--5-7-----|-5--5--5h7---7-|-------5h7---7-|-------5h7-----|
|---------------|---------------|-5--5----------|-5--5----------|

|-------------|-------------|--------------|---------------|
|-4--4---4--7-|-5--5---5--7-|-7--7---4-2-4-|---------------|
|-------------|-------------|--------------|-------4---0-2-|
|-------------|-------------|--------------|-2--2----2-----|

|-----------4h7-|-----------6-9-|--------------|-----------4-6-|
|-------4h7-----|-------6h9-----|---------7----|-4--4--4-7-----|
|-5--5----------|-7--7----------|-------7----7-|---------------|
|---------------|---------------|-5--5---------|---------------|

|------------7---|-------9-9-6---|--------------|---------------|
|--------7-9---9-|-------------9-|---------7----|-------7--7----|
|-5--5-9---------|-7--7----------|-------7----7-|-----7-------7-|
|----------------|---------------|-5--5---------|-5-5-----------|

|--------------|---------------|
|-------7-7----|-------7--7----|
|-----7------7-|-----7-------7-|
|-5------------|-5-5-----------|

Chorus and Verse

|--------------|----------------|--------------|----------------|
|--------------|--------------7-|---------7----|----------------|
|--------------|-5-5-5--5/7h9---|-------7----7-|------------4-7-|
|-5--5--5--5-7-|----------------|-5--5---------|-5--5-x-5-7-----|

|---------------|--------------|--------------|---------------|
|-----------4h7-|---------4--7-|------------4-|---------------|
|-5--5--5h7-----|-5--5--5------|-------5h7----|-----------4-7-|
|---------------|--------------|-5--5---------|-5--5--5-7-----|

|-------------|-------------|--------------|----------2-4-|
|-4--4---4--7-|-5--5---5--7-|-7--7---4-2-4-|--------4-----|
|-------------|-------------|--------------|--------------|
|-------------|-------------|--------------|-2--2---------|

|--------------|---------------|--------------|---------4--6-|
|------4--7--9-|------6--9--11-|---------4--7-|-4--4-7-------|
|-5--5---------|-7--7----------|------7-------|--------------|
|--------------|---------------|-5--5---------|--------------|

|---------4--7-|---------6--9-|--------------|--------------|
|----4-7-------|----6-9-------|------7--7----|------7--7----|
|-5------------|-7------------|----7-------7-|----7-------7-|
|--------------|--------------|-5------------|-5------------|

Solo

|---------------|--------------|--------------|---------------|
|---------------|------------7-|---------7----|---------------|
|-----------2-4-|-5--5--5-9----|-------7----7-|-----------4-7-|
|-5--5--5-7-----|--------------|-5--5---------|-5--5--5-7-----|

|---------------|---------------|---------------|---------------|
|-----------4h7-|-----------4h7-|-----------4h7-|-----------4-7-|
|-5--5--5h7-----|-5--5--5-7-----|-------5-7-----|-------5-7-----|
|---------------|---------------|-5--5----------|-5--5----------|

|-------------|------------|--------------|---------------|
|-4--4---4--7-|-5--5-----5-|-7--7---4-2-4-|---------------|
|-------------|------------|--------------|-----------4h7-|
|-------------|------------|--------------|-2--2--5h7-----|

|--------------|------------6-|---------------|---------------|
|-------4-7--9-|-------6-9----|-4/7-7--7------|---------7-----|
|-5--5---------|-7--7---------|----------7--7-|-9--9--9---9-7-|
|--------------|--------------|---------------|---------------|

|---------------|----------------|--------------|---------------|
|-------------7-|----------9--11-|---------7----|-----4-4--7----|
|-5--5--5-7-9---|-7--7--11-------|-------7----7-|-------------7-|
|---------------|----------------|-5--5---------|-2-2-----------|

|--------------|--------------|--------------|---------------|
|-------4-7----|-------6-9--6-|-------7-7----|---------7-----|
|-5--5-------5-|-7--7---------|-----7------7-|-------7-------|
|--------------|--------------|-5------------|-5-5-----------|
            
Submit corrections

comments powered by Disqus
↑ Back to top | Neil Young Bass for Dont Cry No Tears. Lyrics for acoustic guitar and electric guitar. Tablatures and chords are parodies/interpretations of the original songs. You may use it for private study, scholarship, research or language learning purposes only