» » »

Neil Young, Dont Be Denied Bass tabs (ver.1)

Artists:  A B C D E F G H I J K L M N O P Q R S T U V W X Y Z # 

Dont Be Denied Bass tabs (ver.1)

Neil Young Tabs
 Rating:
4/5 (4 votes)
Dont Be Denied lessons Tabs too difficult? Try these video lessons and learn fast
1
                Standard Tuning 

Intro
|------------------------------------|------------------------------------|
|------------------------------------|------------------------------------|
|------------------------------------|------------------------------------|
|------------------------------------|------------------------------------|

|------------------------------------|------------------------------------|
|------------------------------------|------------------------------------|
|-5----------------------------------|-5----------------------------------|
|--------------5-5---5-------------5-|--------------5-5---5-------------5-|

Verse
|------------------------------------|------------------------------------|
|------------------------------------|------------------------------------|
|-5----------------------------------|-5----------------------------------|
|--------------5-5---5-------------5-|--------------5-5---5-------------5-|

|------------------------------------|------------------------------------|
|------------------------------------|------------------------------------|
|---------------------7--------------|------------------7-----------------|
|-5---------------5------------------|-5----------------------------------|

|------------------------------------|------------------------------------|
|------------------------------------|------------------------------------|
|-5----------------------------------|-5----------------------------------|
|----------------5---5-------------5-|----------------5---5----------4----|

|------------------------------------|------------------------------------|
|------------------------------------|------------------------------------|
|------------------------------------|------------------------------------|
|-3--------------3---3------------3--|-3--------------3---3---------------|

|------------------------------------|------------------------------------|
|------------------------------------|------------------------------------|
|-5----------------------------------|-5----------------------------------|
|----------------5---5------------5--|----------------5---5-------------5-|

|------------------------------------|------------------------------------|
|------------------------------------|------------------------------------|
|---------------------7-----------7--|------------------7-----------------|
|-5---------------5------------------|-5----------------------------------|

|------------------------------------|------------------------------------|
|------------------------------------|------------------------------------|
|-5----------------------------------|-5----------------------------------|
|----------------5---5------------5--|--------------5-5---5----------4----|

|------------------------------------|------------------------------------|
|------------------------------------|------------------------------------|
|------------------------------------|------------------------------------|
|-3--------------3---3------------3--|-3--------------3---3----------5----|

Chorus
|------------------------------------|------------------------------------|
|------------------------------------|------------------------------------|
|-5-------5--------------------------|-5-------5--------------------------|
|------------------5---------------5-|-----------------5--5-------------5-|

|------------------------------------|------------------------------------|
|------------------------------------|------------------------------------|
|---------------------7-----------7--|------------------7-----------------|
|-5---------------5------------------|-5----------------------------------|

|------------------------------------|------------------------------------|
|------------------------------------|------------------------------------|
|-5----------------------------------|-5----------------------------------|
|------------------5---------------5-|------------------5---------5---4---|

|------------------------------------|------------------------------------|
|------------------------------------|------------------------------------|
|------------------------------------|------------------------------------|
|-3--------------3---3------------3--|-3---------------3---3---------5----|

Verse
|------------------------------------|------------------------------------|
|------------------------------------|------------------------------------|
|-5----------------------------------|-5----------------------------------|
|----------------5---5------------5--|-----------------5---5------------5-|

|------------------------------------|------------------------------------|
|------------------------------------|------------------------------------|
|-------------------7-------------7--|-------------------7----------------|
|-5--5-------------------------------|-5-------------5--------------------|

|------------------------------------|------------------------------------|
|------------------------------------|------------------------------------|
|-5----------------------------------|-5----------------------------------|
|------------------5--------------5--|-----------------5---5---------4----|

|------------------------------------|------------------------------------|
|------------------------------------|------------------------------------|
|------------------------------------|------------------------------------|
|-3--------------3---3------------3--|-3---------------3---3--------------|

Chorus
|------------------------------------|------------------------------------|
|------------------------------------|------------------------------------|
|-5-------5--------------------------|-5-------5--------------------------|
|------------------5---------------5-|------------------5-----------------|

|------------------------------------|------------------------------------|
|------------------------------------|------------------------------------|
|---------------------7--------------|------------------7------------6----|
|-5---------------5------------------|-5----------------------------------|

|------------------------------------|------------------------------------|
|------------------------------------|------------------------------------|
|-5----------------------------------|-5----------------------------------|
|------------------5---------------5-|------------------5---------5---4---|

|------------------------------------|------------------------------------|
|------------------------------------|------------------------------------|
|------------------------------------|------------------------------------|
|-3--------------3---3------------3--|-3---------------3---3---------5----|

|------------------------------------|------------------------------------|
|------------------------------------|------------------------------------|
|-5----------------------------------|-5-------5--------------------------|
|--------------5-5---5-------------5-|------------------5-----------------|

|------------------------------------|------------------------------------|
|------------------------------------|------------------------------------|
|-5----------------------------------|-5----------------------------------|
|--------------5-5---5-------------5-|--------------5-5---5-------------5-|

Verse
|------------------------------------|------------------------------------|
|------------------------------------|------------------------------------|
|-5----------------------------------|-5----------------------------------|
|----------------5---5------------5--|-----------------5---5------------5-|

|------------------------------------|------------------------------------|
|------------------------------------|------------------------------------|
|----------------7---7---------------|-------------------7-----------6----|
|-5---5------------------------------|-5---5------------------------------|

|------------------------------------|------------------------------------|
|------------------------------------|------------------------------------|
|-5-------5--------------------------|-5----------------------------------|
|------------------5---------------5-|-------------------5--------5---4---|

|------------------------------------|------------------------------------|
|------------------------------------|------------------------------------|
|------------------------------------|------------------------------------|
|-3--------------3---3-----------3-3-|-3---------------3---3------3---5---|

Chorus
|------------------------------------|------------------------------------|
|------------------------------------|------------------------------------|
|-5-------5--------------------------|-5-------5--------------------------|
|------------------5---------------5-|-------------------5--------------5-|

|------------------------------------|------------------------------------|
|------------------------------------|------------------------------------|
|------------------7--------------7--|-------------------7-----------6----|
|-5-------5--------------------------|-5-------5--------------------------|

|------------------------------------|------------------------------------|
|------------------------------------|------------------------------------|
|-5-------5--------------------------|-5-------5--------------------------|
|------------------5---------------5-|-------------------5--------5---4---|

|------------------------------------|------------------------------------|
|------------------------------------|------------------------------------|
|------------------------------------|------------------------------------|
|-3--------------3---3------------3--|-3---------------3---3---------5----|

Verse
|------------------------------------|------------------------------------|
|------------------------------------|------------------------------------|
|-5----------------------------------|-5----------------------------------|
|----------------5---5------------5--|-----------------5---5------------5-|

|------------------------------------|------------------------------------|
|------------------------------------|------------------------------------|
|---------------------7-----------7--|--------------------7-------7-------|
|-5---5-----------5------------------|-5---5---------5-5------------------|

|------------------------------------|------------------------------------|
|------------------------------------|------------------------------------|
|-5----------------------------------|-5----------------------------------|
|----------------5---5--------5------|-------------------5--------5---4---|

|------------------------------------|------------------------------------|
|------------------------------------|------------------------------------|
|------------------------------------|------------------------------------|
|-3--------------3---3-----------3-3-|-3---------------3---3--------------|

|------------------------------------|------------------------------------|
|------------------------------------|------------------------------------|
|-5----------------------------------|------------------------------------|
|------------------------------------|------------------------------------|
            
Submit corrections

comments powered by Disqus
↑ Back to top | Neil Young Bass for Dont Be Denied. Lyrics for acoustic guitar and electric guitar. 1 Tablatures and chords are parodies/interpretations of the original songs. You may use it for private study, scholarship, research or language learning purposes only