» » »

Damage Done Tabs (ver.1)

Artists:  A B C D E F G H I J K L M N O P Q R S T U V W X Y Z # 

Damage Done Tabs (ver.1)

Neil Young
Rating:
0/5 (0 votes)

Hard to play? Try these video lessons and learn fast.
                Ive Never tabed anything befor but i was listening to my moms cd 
and decided to try to figure this song out. This is what I came up with.
Hope you like it.I tabed it for standard tunning.


(intro): play twice
---2----0h2----------0---------------0----------------0------------
-----3------3------3-----3---3---3-------3---3----3---------3---3--
------2------2------2------2-------2-------2--------2---------2----
---0---------------------------------------------------------------
---------------0h3-----3-------2-------2--------1--------1---------

(second part):

-----1----1----1-----1----1----1----1----1-------------------------
------------0----0h2----3----2----0-------------2-2-2-2-1--2-2-2-1-
------0h2------------------------------3--------2-2-2-2-2--2-2-2-2-
---3--------------------------------------------2-2-2-2-2--2-2-2-2-
--------------------------------------------0----------------------

Most of the song is intro once and then 2nd part. but the at the beggining
play the intro twice and then the first and second part.
            
Hard to play? Try these video lessons and learn fast. | Correct




comments powered by Disqus
↑ Back to top | Tablatures and chords are parodies/interpretations of the original songs. You may use it for private study, scholarship, research or language learning purposes only