» » »

Neil Young, Come On Baby Let's Go Downtown Bass tabs (ver.1)

Artists:  A B C D E F G H I J K L M N O P Q R S T U V W X Y Z # 

Come On Baby Let's Go Downtown Bass tabs (ver.1)

Neil Young Tabs
 Rating:
4/5 (4 votes)
Come On Baby Let's Go Downtown lessons Tabs too difficult? Try these video lessons and learn fast
                I made this tab up trying to double the guitar part for this song. It sounds like it belongs.

Neil Young & Crazy Horse
"Come on baby (let's go downtown)"
[live performance]

Standard tuning

Intro and fill

G|---------------|----------|-----2-4p2---|----------|
D|------2--4p2---|-----0-0--|-2h4-------4-|----------|
A|--3h4--------0-|-1h2------|-------------|-------0--|
E|---------------|----------|-------------|---2-3----|

Chorus and verse
   E                A             D     A    E
G|---------------|----------|-------------|----------|
D|---------------|----------|-------------|----------|
A|-7--7--7--7-7--|--0--0-0-0|--/5-5-4-4p0-|-/7--7-7--|
E|---------------|----------|-------------|----------|

Bridge fill
G|-----------|
D|-----------|  repeat x3, on 3rd time hold that A note until its time to
A|--5-4-0-x-0|  play the intro licks again.
E|-----------|


Hopefully this will give somebody else a good start for correcting this
tab because I have a feeling its NOT 100% correct.
            
Submit corrections

comments powered by Disqus
↑ Back to top | Neil Young Bass for Come On Baby Let's Go Downtown. Lyrics for acoustic guitar and electric guitar. Tablatures and chords are parodies/interpretations of the original songs. You may use it for private study, scholarship, research or language learning purposes only