>
 >
Stabwound

Stabwound Guitar Tabs

Necrophagist - Stabwound chords, tabs, tablatures, lyrics

Guitar lessons | Add/correct | Request | Top 50 tabs Artists:  A B C D E F G H I J K L M N O P Q R S T U V W X Y Z 0-9

Stabwound Guitar Tabs – Necrophagist

CD, Sheet music, Poster

Do you like Stabwound? Share with your friends now
TabsTabs v2
Tuning: D G C F A D

Gtr I

|-----------------|---------------------|
|-----------------|---------------------|
|-----------------|---------------------|
|-----------------|---------------------|
|-9-6-9-6-9-6-9-6-|-7-7-7--9-7-7-[10]-7-|
|-----------------|---------------------|
|
| Gtr II
|-----------------|---------------------|
|-----------------|---------------------|
|-----------------|-9-----11------12----|
|-----------------|---------------------|
|-9-6-9-6-9-6-9-6-|---7-7----7-7------7-|
|-----------------|---------------------|


|-----------------|------------------------------|
|-----------------|------------------------------|
|-----------------|------------------------------|
|-----------------|------------------------------|
|-9-6-9-6-9-6-9-6-|-7-7-7--9--2-------4----[10]--|
|-----------------|-----------0-------2----------|
|
|-----------------|------------------------------|
|-----------------|------------------------------|
|-----------------|-9----------------------------|
|-----------------|----------12p10---------------|
|-9-6-9-6-9-6-9-6-|---7-7-10-------10-------10---|
|-----------------|-------------------8h12-------|


|-------------------|---------------------|
|-------------------|---------------------|
|-------------------|---------------------|
|-------------------|---------------------|
|-[9]-6-2-6---------|-7------9-----[10]-7-|
|-----------5-2-2-2-|---0-0----0-0--------|
|
|-------------------|---------------------|
|-------------------|---------------------|
|-11--8-------------|-9-----11------12----|
|-------------------|---------------------|
|-------9-6-9-6-9-6-|---7-7----7-7------7-|
|-------------------|---------------------|


|------------------|-------------------|
|------------------|-------------------|
|------------------|-------------------|
|---------------10-|-------------------|
|-9-6---10---------|------7-----7------|
|-----0----0--3----|-8-8----8-8---8-0--|
|
|------------------|-------------------|
|--------8---------|-------------------|
|------------------|-------------------|
|---------------10-|-----10------------|
|-9-6------7-10----|-------------------|
|-----0------------|-8-8----8----------|


|-----------------|-----------------|-----------------|--------------------|
|-----------------|-----------------|-----------------|--------------------|
|-----------------|-----------------|-----------------|--------------------|
|-------4-----4---|-----5-----------|---4-------------|-5-----8----------4-|
|-----------------|-----------------|-----------------|--------------------|
|-0-2-2---2-2---0-|-2-3---3-3-3-0-2-|-0---2-2-2-2-0-2-|---3------3--0-2-0--|


|-----------------|-----------------|-----------------|--------------------|
|-----------------|-----8---8p5-----|-----------------|-8------------------|
|-----------------|-----------------|-----------------|---9-[11]-[10]------|
|-------4-----4---|-----------------|---4-------------|------------------4-|
|-----------------|-----------------|-----------------|--------------------|
|-0-2-2---2-2---2-|-0-2---3-----0-2-|-0---2-2-2-2-0-2-|---------------0-2--|


|-----------------|-----------------|-----------------|-----------------|
|-----------------|-----------------|-----------------|-----------------|
|-----------------|-----------4-----|-----------5-----|-----------------|
|-----4-------5---|-----------------|-5-----7-------9p|=7p5-------------|
|-----------------|---------2---2-2-|---------0---0---|-----9-6-9-6-9-6-|
|-2-2---2-0-2---3-|-3-3-0-3---------|---3-5-----------|-----------------|
|
|-----------------|-----------------|-----------------|-----------------|
|-------------8---|-----------------|-----------------|-----------------|
|-----------------|-----------4-----|-------5---9---7p|=5p4-------------|
|-----------------|-----------------|-5---------------|-----------------|
|-----------------|---------2---2-2-|-----0---0---0---|-----9-6-9-6-9-6-|
|-2-2-4-2-0-2---3-|-3-3-0-3---------|---3-------------|-----------------|


|-----------------|-------------------|-----------------|---------------|
|-----------------|-------------------|-----------------|---------------|
|-----------------|-------------------|-----------------|---------------|
|-----------------|-------------------|-----------------|---------------|
|-9-6---7---7---7-|-------9-6-9-6-9-6-|-9-6---7---7-----|---9-6-2-6-----|
|-----0---0---0---|-[3]-0-------------|-----0---0----3--|-----------5-2-|
|
|-----------------|-------------------|-----------------|---------------|
|-----------------|-------------------|-----------------|---------------|
|-------9---9---9-|-------------------|-------9---9-----|---------------|
|-----------------|-------------------|-----------------|---------------|
|-9-6-7---7---7---|-10--7-9-6-9-6-9-6-|-9-6-7---7---10--|---9-6-9-6-9-6-|
|-----------------|-------------------|-----------------|---------------|


                                       Q
|-----------------|--------------------|
|-----------------|--------------------|
|-----------------|--------------------|
|-----------------|------------10---10-|
|-------7---7---7-|------9-6-----------|
|-2-2-0---0---0---|--3-0-----8----8----|
|
|-----------------|--------------------|
|-----------------|--------------------|
|-------9---9---9-|--------------------|
|-----------------|------------10----7-|
|-9-6-7---7---7---|-10-7-9-6------0----|
|-----------------|----------8---------|


 .=150
 9/8
|-------------------------------------------------|
|-------------------------------------------------|
|-------------------------------------------------|
|---------------------------------------------1---|
|--2----4-------[7]-------------4-------2-----2---|
|--0----2-----------------------2-------0---------|
|
|----------------------12-----------------12------|
|------------12-----13----13-12------13------12---|
|---------12----------------------14--------------|
|-------------------------------------------------|
|-10-14-------------------------------------------|
|-------------------------------------------------|


  Q=240
 4/4
  Gtr I
|----------|-------------------------------------|------------------|
|----------|-------------------------------------|------------------|
|----------|-------------------------------------|------------------|
|---4------|-------------------------------------|------------------|
|----------|--2----------------------------------|-(2)------3-------|
|---2------|--0----------------------------------|-(0)------1-------|
|
| Gtr II
|----------|-------------------------------------|------------------|
|---7------|-------------------------------------|------------------|
|---8------|-------------------------------------|------------------|
|---8------|-------------------------------------|------------------|
|---9------|--2----------------------------------|-(2)------3-------|
|----------|--0----------------------------------|-(0)------1-------|
|
| Gtr III
|                               T
|----------|-------------15-19-24-19-15----------|------------------|
|----------|----------17----------------17-------|------------------|
|----------|-------16----------------------16----|------------------|
|----------|----18----------------------------18-|------------------|
|----------|-19----------------------------------|-19------8-11-12-|
|----------|-------------------------------------|------------------|


  Gtr I
|-------------------------------------|
|-------------------------------------|
|-------------------------------------|
|-------------------------------------|
|-(3)---------------------------------|
|-(1)---------------------------------|
|
| Gtr II
|-------------------------------------|
|-------------------------------------|
|-------------------------------------|
|-------------------------------------|
|-(3)---------------------------------|
|-(1)---------------------------------|
|
| Gtr III
|----------------------------10-12-13-|
|-------------------10-12-13----------|
|-----------9-10-13-------------------|
|--9--10-12---------------------------|
|-------------------------------------|
|-------------------------------------|


|-------------------------------------------------|------------------|
|-------------------------------------------------|------------------|
|--5S====7-----7----------------------------------|--(7)-------------|
|-------------------------------------------------|------------------|
|--3S====5-----5----------------------------------|--(5)--------2----|
|-------------------------------------------------|-------------0----|
|
|-------------------------------------------------|------------------|
|-------------------------------------------------|------------------|
|--7S===10----10----------------------------------|-(10)-------------|
|-------------------------------------------------|------------------|
|-------------------------------------------------|-------------2----|
|-------------------------------------------------|-------------0----|
|
|  T           T           T           T              T
|-17-13p12p10-17-13p12p10-17-13p12p10-20-16p13p12-|--20--16p13-12----|
|-------------------------------------------------|------------------|
|-------------------------------------------------|------------------|
|-------------------------------------------------|------------------|
|-------------------------------------------------|------------------|
|-------------------------------------------------|------------------|


                   Q=190
 3/4              4/4
  Gtr I
|----------------|---------------------------------|
|----------------|---------------------------------|
|----------------|---------------------------------|
|----------------|---------------------------------|
|-(2)------------|--(2)-----3----------------------|
|-(0)------------|--(0)-----1----------------------|
|
| Gtr II
|----------------|---------------------------------|
|----------------|---------------------------------|
|----------------|---------------------------------|
|----------------|---------------------------------|
|-(2)------------|--(2)-----3----------------------|
|-(0)------------|--(0)-----1----------------------|
|
| Gtr III
|                                       T
|-12b12.5r=======|=(12)-------13-16-19-22-19-16-13-|
|----------------|---------12----------------------|
|----------------|---------------------------------|
|----------------|---------------------------------|
|----------------|---------------------------------|
|----------------|---------------------------------|


|---------------------------------|
|---------------------------------|
|---------------------------------|
|---------------------------------|
|-(3)-----------------------------|
|-(1)-----------------------------|
|
|---------------------------------|
|---------------------------------|
|---------------------------------|
|---------------------------------|
|-(3)-----------------------------|
|-(1)-----------------------------|
|
|               T           ~~
|-----13-16-19-22-19-16-13--------|
|-12-----------------------12-----|
|---------------------------------|
|---------------------------------|
|---------------------------------|
|---------------------------------|


  Gtr I
|---------------------------------------------------|
|---------------------------------------------------|
|---------------------------------------------------|
|--6h====9-----9-----9-----------------------(9)--7-|
|---------------------------------------------------|
|---------------------------------------------------|
|
| Gtr II
|---------------------------------------------------|
|---------------------------------------------------|
|---------------------------------------------------|
|--9h===12----12----12----------------------(12)-10-|
|---------------------------------------------------|
|---------------------------------------------------|
|
| Gtr III
|-17-16-13-16-13----13------------------------------|
|----------------17----17-15-17-15-13-15-13------13-|
|--------------------------------------------16-----|
|---------------------------------------------------|
|---------------------------------------------------|
|---------------------------------------------------|


 3/4
|---------------------------|
|---------------------------|
|---------------------------|
|--(7)-----------(7)--6-----|
|---------------------8-----|
|---------------------------|
|
|---------------------------|
|---------------------------|
|---------------------------|
|-(10)----------(10)--9-----|
|--------------------11-----|
|---------------------------|
|
|                     ~~
|---------------------------|
|---------------------------|
|--16--14-13-16--14--13-----|
|---------------------------|
|---------------------------|
|---------------------------|


   Q.=120
 6/8                                                         1/4
  Gtr I
|------------|--------------|------------------|------------|-----|
|------------|--------------|--------------12--|-(12)--11---|-11--|
|------------|--------------|------9-13-14-----|------------|-10--|
|--------3---|-(3)----------|------------------|------------|-----|
|------3-----|-----2----(2)-|-(2)--------------|------------|-----|
|--1-4-------|-----0----(0)-|-(0)--------------|------------|-----|
|
| Gtr II
|------------|--------------|------------------|------------|-----|
|--------6---|-(6)----------|--------------12--|-(12)-------|-11--|
|------5-----|--------------|------9-13-14-----|-------10---|-10--|
|--3-6-------|--------------|------------------|--------8---|-----|
|------------|-----2----(2)-|-(2)--------------|------------|-----|
|------------|-----0----(0)-|-(0)--------------|------------|-----|


  Q.=120
 6/8
|-------------------------------------|
|-------------------------------------|
|-------------------------------------|
|-------------------------------------|
|-----------7--0h=3h=7p=3p=2h=3h=7p=3p|
|--0--0--0----------------------------|
|
|-------------24p19-------------------|
|----------17-------17----------------|
|-------16-------------16----16----17-|
|----17-------------------17----19----|
|-19----------------------------------|
|-------------------------------------|


|-------------------------------------|------------------------------------|
|-------------------------------------|------------------------------------|
|-------------------------------------|------------------------------------|
|-------------------------------------|----------------------------5-------|
|--2--0--0--0--0h=3p=0--6--6--6--6h12p|==6----------------------2-----2----|
|-------------------------------------|-----0h=3h=7p=3p=0h=3p=2----------3-|


|----------------23-------------------|-20p19---------------19----19h24p19-|
|----------19h22----22p19----------19-|-------20---------20----20----------|
|-------20----------------20----20----|---------21----21-------------------|
|-19h21----------------------19-------|------------21----------------------|
|-------------------------------------|------------------------------------|
|-------------------------------------|-------------------------------------


 4/8            6/8
|--------------|--------------------|
|--------------|--------------------|
|--------------|--------------------|
|-----------4--|------------2--(2)--|
|--------------|------------2--(2)--|
|--2--2--2--2--|---0--0--0----------|
|
|--------------|--------19h24-(24)--|
|-20----19h22--|-----20-------------|
|----17--------|--21----------------|
|--------------|--------------------|
|--------------|--------------------|
|--------------|--------------------|


    Q=250
   4/4
||-----------------|-----------------|-----------------|---------------|
||o----------------|-----------------|-----------------|---------------|
||-----------------|-------------3---|-----------------|-----3---------|
||---4-1-----------|-----5-----------|---4-1-----------|-----------4---|
||o----------------|-----------------|-----------------|---------------|
||-------0-2-3-3-3-|-3-3---3-3-2---3-|-3-----0-2-3-3-3-|-3-3---0-3-2---|
|
||-----------------|-----------------|-----------------|---------------|
||o----------------|-----------------|-----------------|---------------|
||-----------------|-----3-------7---|-----------------|-3---3---------|
||---4-1-----------|-----------------|---4-1-----------|-----------4---|
||o----------------|-----------------|-----------------|---------------|
||-------0-2-3-3-3-|-3-3---3-3-2---3-|-3-----0-2-3-3-3-|---3---0-3-2---|


                                                         9/8
|-------------------|-----------------|-----------------|----------------|
|-------------------|-----------------|-----------------|----------------|
|-------------------|-------------3---|-----------------|-----3----------|
|-(4)-4-1-----------|-----5-----------|---4-1-----------|-----------4----|
|-------------------|-----------------|-----------------|----------------|
|-(2)-----0-2-3-3-3-|-3-3---3-3-2---3-|-3-----0-2-3-3-3-|-3-3---0-3-2----|
|
|-------------------|-----------------|-----------------|----------------|
|-------------------|-----------------|-----------------|----------------|
|-------------------|-----3-------7---|-----------------|-3---3----------|
|-(4)-4-1-----------|-----------------|---4-1-----------|-----------4----|
|-------------------|-----------------|-----------------|----------------|
|-(2)-----0-2-3-3-3-|-3-3---3-3-2---3-|-3-----0-2-3-3-3-|---3---0-3-2----|


|-----------------|-------------------|-----------------|---------------|
|-----------------|-------------------|-----------------|---------------|
|-----------------|-------------------|-----------------|---------------|
|-----------------|-------------------|-----------------|---------------|
|-9-6-9-6-9-6-9-6-|---7---7---7-------|-9-6-9-6-9-6-9-6-|---7---7-------|
|-----------------|-0---0---0---[3]-0-|-----------------|-0---0----3----|
|
|-----------------|-------------------|-----------------|---------------|
|-----------------|-------------------|-----------------|---------------|
|-----------------|---9---9---9-------|-----------------|---9---9-------|
|-----------------|-------------------|-----------------|---------------|
|-9-6-9-6-9-6-9-6-|-7---7---7---10--7-|-9-6-9-6-9-6-9-6-|-7---7---10----|
|-----------------|-------------------|-----------------|---------------|


                                                       Q
                                        3/4
|-------------------|------------------|---------------|
|-------------------|------------------|---------------|
|-------------------|------------------|---------------|
|-------------------|------------------|-------10---10-|
|-[9]-6-2-6---------|---7---7---7------|-9-6-----------|
|-----------5-2-2-2-|-0---0---0----3-0-|-----8----8----|
|
|-------------------|------------------|---------------|
|-------------------|------------------|---------------|
|-------------------|---9---9---9------|---------------|
|-------------------|------------------|-------10----7-|
|--9--6-9-6-9-6-9-6-|-7---7---7---10-7-|-9-6------0----|
|-------------------|------------------|-----8---------|


 .=150
 9/8
|---------------------------------------------------||
|--------------------------------------------------o||
|---------------------------------------------------||
|---------------------------------------------1-----||
|--2----4-------[7]-------------4-------2-----2----o||
|--0----2-----------------------2-------0-----------||
|
|----------------------12-----------------12--------||
|------------12-----13----13-12------13------12----o||
|---------12----------------------14----------------||
|---------------------------------------------------||
|-10-14--------------------------------------------o||
|---------------------------------------------------||


  Q=240
 4/4
  Gtr I
|----------|-------------------------------------|------------------|
|----------|-------------------------------------|------------------|
|----------|-------------------------------------|------------------|
|---4------|-------------------------------------|------------------|
|----------|--2----------------------------------|-(2)------3-------|
|---2------|--0----------------------------------|-(0)------1-------|
|
| Gtr II
|----------|-------------------------------------|------------------|
|---7------|-------------------------------------|------------------|
|---8------|-------------------------------------|------------------|
|---8------|-------------------------------------|------------------|
|---9------|--2----------------------------------|-(2)------3-------|
|----------|--0----------------------------------|-(0)------1-------|
|
| Gtr III
|                               T
|----------|-------------15-19-24-19-15----------|------------------|
|----------|----------17----------------17-------|------------------|
|----------|-------16----------------------16----|------------------|
|----------|----18----------------------------18-|------------------|
|----------|-19----------------------------------|-19------8-11-12--|
|----------|-------------------------------------|------------------|


  Gtr I
|-------------------------------------|
|-------------------------------------|
|-------------------------------------|
|-------------------------------------|
|-(3)---------------------------------|
|-(1)---------------------------------|
|
| Gtr II
|-------------------------------------|
|-------------------------------------|
|-------------------------------------|
|-------------------------------------|
|-(3)---------------------------------|
|-(1)---------------------------------|
|
| Gtr III
|----------------------------10-12-13-|
|-------------------10-12-13----------|
|-----------9-10-13-------------------|
|--9--10-12---------------------------|
|-------------------------------------|
|-------------------------------------|


|-------------------------------------------------|------------------|
|-------------------------------------------------|------------------|
|--5S====7-----7----------------------------------|--(7)-------------|
|-------------------------------------------------|------------------|
|--3S====5-----5----------------------------------|--(5)--------2----|
|-------------------------------------------------|-------------0----|
|
|-------------------------------------------------|------------------|
|-------------------------------------------------|------------------|
|--7S===10----10----------------------------------|-(10)-------------|
|-------------------------------------------------|------------------|
|-------------------------------------------------|-------------2----|
|-------------------------------------------------|-------------0----|
|
|  T           T           T           T              T
|-17-13p12p10-17-13p12p10-17-13p12p10-20-16p13p12-|--20--16p13-12----|
|-------------------------------------------------|------------------|
|-------------------------------------------------|------------------|
|-------------------------------------------------|------------------|
|-------------------------------------------------|------------------|
|-------------------------------------------------|------------------|


                     Q=190
 3/4                4/4
  Gtr I
|------------------|---------------------------------|
|------------------|---------------------------------|
|------------------|---------------------------------|
|------------------|---------------------------------|
|--(2)-------------|--(2)-----3----------------------|
|--(0)-------------|--(0)-----1----------------------|
|
| Gtr II
|------------------|---------------------------------|
|------------------|---------------------------------|
|------------------|---------------------------------|
|------------------|---------------------------------|
|--(2)-------------|--(2)-----3----------------------|
|--(0)-------------|--(0)-----1----------------------|
|
| Gtr III
|                                         T
|-(12)b12.5r=======|=(12)-------13-16-19-22-19-16-13-|
|------------------|---------12----------------------|
|------------------|---------------------------------|
|------------------|---------------------------------|
|------------------|---------------------------------|
|------------------|---------------------------------|


|---------------------------------|
|---------------------------------|
|---------------------------------|
|---------------------------------|
|-(3)-----------------------------|
|-(1)-----------------------------|
|
|---------------------------------|
|---------------------------------|
|---------------------------------|
|---------------------------------|
|-(3)-----------------------------|
|-(1)-----------------------------|
|
|               T           ~~
|-----13-16-19-22-19-16-13--------|
|-12-----------------------12-----|
|---------------------------------|
|---------------------------------|
|---------------------------------|
|---------------------------------|


  Gtr I
|---------------------------------------------------|
|---------------------------------------------------|
|---------------------------------------------------|
|--6h====9-----9-----9-----------------------(9)--7-|
|---------------------------------------------------|
|---------------------------------------------------|
|
| Gtr II
|---------------------------------------------------|
|---------------------------------------------------|
|---------------------------------------------------|
|--9h===12----12----12----------------------(12)-10-|
|---------------------------------------------------|
|---------------------------------------------------|
|
| Gtr III
|-17-16-13-16-13----13------------------------------|
|----------------17----17-15-17-15-13-15-13------13-|
|--------------------------------------------16-----|
|---------------------------------------------------|
|---------------------------------------------------|
|---------------------------------------------------|


 3/4
|---------------------------|
|---------------------------|
|---------------------------|
|--(7)-----------(7)--6-----|
|---------------------8-----|
|---------------------------|
|
|---------------------------|
|---------------------------|
|---------------------------|
|-(10)----------(10)--9-----|
|--------------------11-----|
|---------------------------|
|
|                     ~~
|---------------------------|
|---------------------------|
|--16--14-13-16--14--13-----|
|---------------------------|
|---------------------------|
|---------------------------|


  Q=240
 4/4
  Gtr I
|----------------------------------------------|-----------------------|
|----------------------------------------------|-----------------------|
|----------------------------------------------|-----------------------|
|----------------------------------------------|-----------2-----------|
|--2-------------------------------------------|--(2)------------------|
|--0-------------------------------------------|--(0)----1-------------|
|
| Gtr III
|----------------------------------------------|-----------------------|
|----------16b17r=(16)-------------------------|-----------------------|
|-------16-------------17-16-15-(15)-(15)b16===|=(15)--------(15)b17===|
|----17----------------------------------------|-----------------------|
|-19-------------------------------------------|-----------------------|
|----------------------------------------------|-----------------------|
|
| Gtr IV
|----------------------------------------------|-----------------------|
|----------------------------------------------|-----------------------|
|----------------------------------------------|-----------------------|
|----------------------------------------------|-----------------------|
|----------------------------------------------|-----------------------|
|----------------------------------------------|-----------------------|


|------------------------|----------------------|------------------|
|------------------------|----------------------|------------------|
|------------------------|----------------------|------------------|
|------------------------|----------------------|------------------|
|---3--------------------|-(3)------8-5---------|---6--------------|
|---1--------------------|-(1)------------------|---4--------------|
|
|------------------------|----------------------|------------------|
|---------------------16-|-17b18r=======16b17r-|-(16)------------|
|-(15)r===(15)--16-17----|----------------------|----------17--16--|
|------------------------|----------------------|------------------|
|------------------------|----------------------|------------------|
|------------------------|----------------------|------------------|
|
|------------------------|----------------------|------------------|
|------------------------|----------------------|------------------|
|------------------------|----------------------|------------------|
|------------------------|----------------------|------------------|
|------------------------|----------------------|------------------|
|------------------------|----------------------|------------------|


  Gtr I
|-------------------|--------------|---------------------------------------|
|-------------------|--------------|---------------------------------------|
|-------------------|--------------|---------------------------------------|
|-------------------|--------------|---------------------------------------|
|-(6)----5----------|--2-----------|-(2)-----3-----------------------------|
|-(4)----3----------|--0-----------|-(0)-----1-----------------------------|


| Gtr III
|-------------------|--------------|--------------------------------------|
|-------------------|16b18========|========================================|
|-----13------------|--------------|----------------------------------------
|----------15-14----|--------------|---------------------------------------|
|-------------------|--------------|---------------------------------------|
|-------------------|--------------|---------------------------------------|


| Gtr IV
|-------------------|--------------|---------------------9-10-12-13-16-17--|
|-------------------|--------------|-------------9-10-12-------------------|
|-------------------|--------------|-----9-10-12---------------------------|
|-------------------|--------------|---------------------------------------|
|-------------------|--------------|---------------------------------------|
|-------------------|--------------|---------------------------------------|


  Gtr I
|---------------|--------------------|-----------|
|---------------|--------------------|-----------|
|---------------|--------------------|-----------|
|---------------|----------------2---|-----------|
|--2------------|-(2)----------------|--3--------|
|--0------------|-(0)-------1--------|--1--------|
|
| Gtr III
|---------------|--------------------|-----------|
|---------------|--------------------|-----------|
|---------------|--------------------|-----------|
|---------------|--------------------|-----------|
|---------------|--------------------|-----------|
|---------------|--------------------|-----------|
|
| Gtr IV
|         ~~~~                          ~~
|-16----(16)----|-18b20r=============|===========|
|---------------|----------18b20r====|===========|
|---------------|--------------------|-17--------|
|---------------|--------------------|-----------|
|---------------|--------------------|-----------|
|---------------|--------------------|-----------|


|---------------------------------------------|----------------------------|
|---------------------------------------------|----------------------------|
|---------------------------------------------|----------------------------|
|---------------------------------------------|----------------------------|
|-(3)------------------8-----5----------------|--6-------------------------|
|-(1)-----------------------------------------|--4-------------------------|


|----------16-17-20-17------------------------|----------------------------|
|-------18-------------18---------------------|----------------------------|
|-----17------------------17------------------|----------------------------|
|--19------------------------19---------------|----------------------------|
|20-----------------------------20-19---------|--------3-5-7---------------|
|----------------------------------20-17-13|12-11-4-5-7-----8-7-5-6-5-3-2-0|





  Gtr I
|---------------------------------|----------------------------------|
|---------------------------------|----------------------------------|
|---------------------------------|----------------------------------|
|---------------------------------|----------------------------------|
|-(6)-------5---------------------|-2--------------------------------|
|-(4)-------3---------------------|-0--------------------------------|
|
| Gtr III
|---------------------------------|----------------------------------|
|---------------------------------|----------------------------------|
|---------------------5-7-9-7-5-4-|----------------------------------|
|---------------5-7-9-------------|-6-7-6-7-5-4-5-7-4-5-7-9-5-7-9-10-|
|---------5-7-8-------------------|----------------------------------|
|--5--7-8-------------------------|----------------------------------|
|
| Gtr IV
|---------------------------------|----------------------------------|
|---------------------------------|----------------------------------|
|---------------------------------|----------------------------------|
|---------------------------------|----------------------------------|
|---------------------------------|----------------------------------|
|---------------------------------|----------------------------------|


|--------------------------------------------------|
|--------------------------------------------------|
|--------------------------------------------------|
|--------------------------------------------------|
|-(2)--------3-------------------------------------|
|-(0)--------1-------------------------------------|
|
|--------------------------12-13-16-17-(17)-(17)---|
|-----------------10-12-13-------------------------|
|----------7-9-10----------------------------------|
|--7--9-10-----------------------------------------|
|--------------------------------------------------|
|--------------------------------------------------|
|
|--------------------------------------------------|
|--------------------------------------------------|
|--------------------------------------------------|
|--------------------------------------------------|
|--------------------------------------------------|
|--------------------------------------------------|


  Gtr I
|---------------|-------------------|
|---------------|-------------------|
|---------------|-------------------|
|---------------|---------------2---|
|--2------------|--(2)--------------|
|--0------------|--(0)-----1--------|
|
| Gtr III
|         ~~~~
|-16----(16)----|-(16)----18b21r====|
|---------------|-------------------|
|---------------|-------------------|
|---------------|-------------------|
|---------------|-------------------|
|---------------|-------------------|
|
| Gtr IV
|---------------|---------23b24r====|
|---------------|-------------------|
|---------------|-------------------|
|---------------|-------------------|
|---------------|-------------------|
|---------------|-------------------|


|-------------------------|-----------------------|---------|
|-------------------------|-----------------------|---------|
|-------------------------|-----------------------|---------|
|-------------------------|-----------------------|---------|
|--3----------------------|-(3)-----------8-5-----|---6-----|
|--1----------------------|-(1)-------------------|---4-----|
|
|                                         ~~~~~~~~~~~~~~~
|-17-18-17-16-17-16----16-|-----------------------|---------|
|-------------------18----|-18--17-18-17-15---16--|-(16)----|
|-------------------------|-----------------------|---------|
|-------------------------|-----------------------|---------|
|-------------------------|-----------------------|---------|
|-------------------------|-----------------------|---------|
|
|                                                     ~~~~
|-20-22-20-19-20-19----19-|-----------------------|---------|
|-------------------22----|-22--21-22-21-18---22--|--21-----|
|-------------------------|-----------------------|---------|
|-------------------------|-----------------------|---------|
|-------------------------|-----------------------|---------|
|-------------------------|-----------------------|---------|


 5/4             4/4
  Gtr I
|---------------|-------------|-----------|
|---------------|-------------|-----------|
|---------------|-------------|-----------|
|---------------|-------------|-----------|
|-(6)----5------|---2---------|-(2)--3----|
|-(4)----3------|---0---------|-(0)--1----|
|
| Gtr III
|---------------|-------------|-----------|
|-17b18r========|=(17)--------|-15-------|
|---------------|-------------|-----------|
|---------------|-------------|-----------|
|---------------|-------------|-----------|
|---------------|-------------|-----------|
|
| Gtr IV
|---------------|-------------|-----------|
|-21b22r========|=(21)--------|-18--------|
|---------------|-------------|-----------|
|---------------|-------------|-----------|
|---------------|-------------|-----------|
|---------------|-------------|-----------|


  Gtr I
|-----------|---------------|----------------------------------------------|
|-----------|---------------|----------------------------------------------|
|-----------|---------------|----------------------------------------------|
|-----------|-----------2---|----------------------------------------------|
|--2--------|--(2)----------|--3-------------------------------------------|
|--0--------|--(0)----1-----|--1-------------------------------------------|
|
| Gtr III
|               ~~~~
|-----------|---------------|----------------------------------------------|
|-13--------|-(13)----------|----------------------------------------------|
|-----------|---------------|----------------------------------------------|
|-----------|---------------|----------------------------------------------|
|-----------|---------------|----------------------------------------------|
|-----------|---------------|----------------------------------------------|


| Gtr IV
|               ~~~~
|-----------|---------------|----------16----------------------------------|
|-17--------|-(17)----------|----17-18----18-17----17-18-17----------------|
|-----------|---------------|-19----------------19--------19-17-16-14-13-14-
|-----------|---------------|----------------------------------------------|
|-----------|---------------|----------------------------------------------|
|-----------|---------------|----------------------------------------------|


|-----------------------------------------------------|
|-----------------------------------------------------|
|-----------------------------------------------------|
|-----------------------------------------------------|
|-(3)-----------------------8-----5-------------------|
|-(1)-------------------------------------------------|
|
|-----------------------------------------------------|
|-----------------------------------------------------|
|-----------------------------------------------------|
|-----------------------------------------------------|
|-----------------------------------------------------|
|-----------------------------------------------------|
|
|-----------------------------------------------------|
|-12--13-------------------------------12-------------|
|--------16-14-13----------------13-14----14-13-------|
|-----------------15-14-12-14-15----------------15----|
|-----------------------------------------------------|
|-----------------------------------------------------|


|-------------------------------------------------|
|-------------------------------------------------|
|-------------------------------------------------|
|-------------------------------------------------|
|--6----------------------------------------------|
|--4----------------------------------------------|
|
|-------------------------------------------------|
|-------------------------------------------------|
|-------------------------------------------------|
|-------------------------------------------------|
|-------------------------------------------------|
|-------------------------------------------------|
|
|-------------------------------------------------|
|-------------------------------------------------|
|-------------------------------------------------|
|-15-14-12-14-15-14-12----12-14-12----------------|
|----------------------15----------15-14-12----14-|
|-------------------------------------------15----|


|--------------------------------------------------------|-------|
|--------------------------------------------------------|-------|
|--------------------------------------------------------|-------|
|--------------------------------------------------------|-------|
|-(6)-----5----------------------------------------------|-------|
|-(4)-----3----------------------------------------------|-------|
|
|                                                           ~~
|--------------------------------------------------------|-------|
|--------------------------------------------------------|-------|
|--------------------------------------------------------|-------|
|---------------------------------------13b14r===========|=13----|
|--------------------------------------------------------|-------|
|--------------------------------------------------------|-------|
|
|                                                           ~~
|--------------------------------------------------------|-------|
|--------------------------------------------------------|-------|
|--------------------------12-14-15-14--13----(13)b14.5r=|=13----|
|-----------------12-14-15-------------------------------|-------|
|-12-----12-14-15----------------------------------------|-------|
|-----15-------------------------------------------------|-------|


   Q.=120
 6/8                                                         1/4
  Gtr I
|------------|--------------|------------------|------------|-----|
|------------|--------------|--------------12--|-(12)--11---|-11--|
|------------|--------------|------9-13-14-----|------------|-10--|
|--------3---|-(3)----------|------------------|------------|-----|
|------3-----|-----2----(2)-|-(2)--------------|------------|-----|
|--1-4-------|-----0----(0)-|-(0)--------------|------------|-----|
|
| Gtr II
|------------|--------------|------------------|------------|-----|
|--------6---|-(6)----------|--------------12--|-(12)-------|-11--|
|------5-----|--------------|------9-13-14-----|-------10---|-10--|
|--3-6-------|--------------|------------------|--------8---|-----|
|------------|-----2----(2)-|-(2)--------------|------------|-----|
|------------|-----0----(0)-|-(0)--------------|------------|-----|


  Q.=120
 6/8
|-------------------------------------|
|-------------------------------------|
|-------------------------------------|
|-------------------------------------|
|-----------7--0h=3h=7p=3p=2h=3h=7p=3p|
|--0--0--0----------------------------|
|
|-------------24p19-------------------|
|----------17-------17----------------|
|-------16-------------16----16----17-|
|----17-------------------17----19----|
|-19----------------------------------|
|-------------------------------------|


|-------------------------------------|------------------------------------|
|-------------------------------------|------------------------------------|
|-------------------------------------|------------------------------------|
|-------------------------------------|----------------------------5-------|
|--2--0--0--0--0h=3p=0--6--6--6--6h12p|==6----------------------2-----2----|
|-------------------------------------|-----0h=3h=7p=3p=0h=3p=2-----------3-

|
|----------------23-------------------|-20p19---------------19----19h24p19-|
|----------19h22----22p19----------19-|-------20----------20----20---------|
|-------20----------------20----20----|----------21----21------------------|
|-19h21----------------------19-------|-------------21---------------------|
|-------------------------------------|------------------------------------|
|-------------------------------------|------------------------------------|


|--------------|--------------------|
|--------------|--------------------|
|--------------|--------------------|
|-----------4--|------------2--(2)--|
|--------------|------------2--(2)--|
|--2--2--2--2--|---0--0--0----------|
|
|--------------|--------19h24-(24)--|
|-20----19h22--|-----20-------------|
|----17--------|--21----------------|
|--------------|--------------------|
|--------------|--------------------|
|--------------|--------------------|


    Q=250
   4/4
||-----------------|-----------------|-----------------|---------------|
||o----------------|-----------------|-----------------|---------------|
||-----------------|-------------3---|-----------------|-----3---------|
||---4-1-----------|-----5-----------|---4-1-----------|-----------4---|
||o----------------|-----------------|-----------------|---------------|
||-------0-2-3-3-3-|-3-3---3-3-2---3-|-3-----0-2-3-3-3-|-3-3---0-3-2---|
|
||-----------------|-----------------|-----------------|---------------|
||o----------------|-----------------|-----------------|---------------|
||-----------------|-----3-------7---|-----------------|-3---3---------|
||---4-1-----------|-----------------|---4-1-----------|-----------4---|
||o----------------|-----------------|-----------------|---------------|
||-------0-2-3-3-3-|-3-3---3-3-2---3-|-3-----0-2-3-3-3-|---3---0-3-2---|


                                                         9/8
|-------------------|-----------------|-----------------|----------------|
|-------------------|-----------------|-----------------|----------------|
|-------------------|-------------3---|-----------------|-----3----------|
|-(4)-4-1-----------|-----5-----------|---4-1-----------|-----------4----|
|-------------------|-----------------|-----------------|----------------|
|-(2)-----0-2-3-3-3-|-3-3---3-3-2---3-|-3-----0-2-3-3-3-|-3-3---0-3-2----|
|
|-------------------|-----------------|-----------------|----------------|
|-------------------|-----------------|-----------------|----------------|
|-------------------|-----3-------7---|-----------------|-3---3----------|
|-(4)-4-1-----------|-----------------|---4-1-----------|-----------4----|
|-------------------|-----------------|-----------------|----------------|
|-(2)-----0-2-3-3-3-|-3-3---3-3-2---3-|-3-----0-2-3-3-3-|---3---0-3-2----|


 4/4
|-----------------|-------------------|-----------------|--------------|
|-----------------|-------------------|-----------------|--------------|
|-----------------|-------------------|-----------------|--------------|
|-----------------|-------------------|-----------------|--------------|
|-9-6-9-6-9-6-9-6-|---7---7---7-------|-9-6-9-6-9-6-9-6-|---7---7------|
|-----------------|-0---0---0---[3]-0-|-----------------|-0---0----3---|
|
|-----------------|-------------------|-----------------|--------------|
|-----------------|-------------------|-----------------|--------------|
|-----------------|---9---9---9-------|-----------------|---9---9------|
|-----------------|-------------------|-----------------|--------------|
|-9-6-9-6-9-6-9-6-|-7---7---7---10--7-|-9-6-9-6-9-6-9-6-|-7---7---10---|
|-----------------|-------------------|-----------------|--------------|


                                                       Q
                                        3/4
|-------------------|------------------|---------------|
|-------------------|------------------|---------------|
|-------------------|------------------|---------------|
|-------------------|------------------|-------10---10-|
|-[9]-6-2-6---------|---7---7---7------|-9-6-----------|
|-----------5-2-2-2-|-0---0---0----3-0-|-----8----8----|
|
|-------------------|------------------|---------------|
|-------------------|------------------|---------------|
|-------------------|---9---9---9------|---------------|
|-------------------|------------------|-------10----7-|
|--9--6-9-6-9-6-9-6-|-7---7---7---10-7-|-9-6------0----|
|-------------------|------------------|-----8---------|


 .=150
 9/8
|---------------------------------------------------||
|--------------------------------------------------o||
|---------------------------------------------------||
|---------------------------------------------1-----||
|--2----4-------[7]-------------4-------2-----2----o||
|--0----2-----------------------2-------0-----------||
|
|----------------------12-----------------12--------||
|------------12-----13----13-12------13------12----o||
|---------12----------------------14----------------||
|---------------------------------------------------||
|-10-14--------------------------------------------o||
|---------------------------------------------------||


 4/4
|----------|----------------|-----*|
|----------|----------------|-----*|
|----------|----------------|-----*|
|----------|----------------|-----*|
|-3--------|-(3)--2--2------|-----*|
|-1--------|-(1)--0--0------|-----*|
|
|----------|----------------|-----*|
|----------|----------------|-----*|
|----------|----------------|-----*|
|----------|---------2------|-----*|
|-3--------|-(3)--2---------|-----*|
|-1--------|-(1)--0--0------|-----*|





Comments


Popular Necrophagist tabs & chords
Fermented Offal Discharge Bass Tabs
Mutilate The Stillborn Bass Tabs
Diminished To B Tabs
Epitaph 2 Tabs
Extreme Unction Tabs
Fermented Offal Discharge Intro Tabs
Foul Body Autopsy Tabs
Only Ash Remains Tabs
Stabwound 1 Tabs
The Stillborn One Tabs


Song lyrics



↑ Back to top | Tablatures and chords are parodies/interpretations of the original songs. You may use it for private study, scholarship, research or language learning purposes only
© 2014 AZChords.com Contact us | Privacy policy | DMCA | Add/correct tabs | Request tabs | Top 50 tabs