>
 >
Epitaph 2

Epitaph 2 Guitar Tabs

Necrophagist - Epitaph 2 chords, tabs, tablatures, lyrics

Guitar lessons | Add/correct | Request | Top 50 tabs Artists:  A B C D E F G H I J K L M N O P Q R S T U V W X Y Z 0-9

Epitaph 2 Guitar Tabs – Necrophagist

CD, Sheet music, Poster

Do you like Epitaph 2? Share with your friends now
TabsTabs v2


i know this is probably not 100% but come on its necrophagist and this is my first tab

.  - palm mute           /  - slide up
\  - slide down to       ~  - vibrato
h  - hammer on           b  - Bend
p  - pull off            Suffixes for bend
t  - tap                 f  - full bend    h - half bend
ph - pinched harmonic    q  - quarter bend t - tap bend
*  - see comment         ^  - Hold bend    r release bend
x  - Stuccatto           ~  - vibrato bend
,  - slight palm mute    () - ghost note, sustained note
"  - tremolo note        <> - Trill

 i might have forgotten some hammerons and pulloffs but w/e
|-----------------------------------------------------------------------------|
|----------------------------------------------------11-13-14-t18-14-13-11----|
|----------------------------------------------10-11--------------------------|
|---15b16---/11-10-8------------------8-10-11---------------------------------|
|-------------------------8-9-9ph-8-9-----------------------------------------|
|-----------------------------------------------------------------------------|

|----------------------------------------9-13-9----------9-13/20p16-----------|
|-------13-14-13-t18\17/18~-----------11--------11----11------------18---18---|
|-11-10----------------------------10--------------10------------------17-----|
|--------------------------------11-------------------------------------------|
|-----------------------------13----------------------------------------------|
|-----------------------------------------------------------------------------|

|--16-20-------------------16-20t23-20-16--------------------16-20t23--21b23--|
|--------18-------------18----------------18---------------18-----------------|
|-----------17--------17---------------------17---------17--------------------|
|--------------18---18--------------------------18---18-----------------------|
|-----------------20-------------------------------20-------------------------|
|-----------------------------------------------------------------------------|

|r21-20-18-20-21-20--------------16-20-16----------16h20t21p20p16h20t23p20----|
|-----------------------------18----------18----18----------------------------|
|--------------------------17----------------17-------------------------------|
|-----------------------18----------------------------------------------------|
|--------------------20-------------------------------------------------------|
|-----------------------------------------------------------------------------|

|p16h20t21p20p16---------------------16h20t21p20p16---------------------16----|
|----------------18---------------18----------------18---------------18-------|
|-------------------17----------17---------------------17----------17---------|
|----------------------18----18---------------------------18----18------------|
|-------------------------20---------------------------------20---------------|
|-----------------------------------------------------------------------------|
                           this part might be a little off but sounds fine
|-20t23p20p16-----------------------------------------------------------------|
|-------------18----------------------------------16h18t21p18p16h18h23p18p16--|
|----------------17----------17h20t22p20p17----17-----------------------------|
|-------------------18----18----------------18--------------------------------|
|----------------------20-----------------------------------------------------|
|-----------------------------------------------------------------------------|

|-------------------------------------------16h18t21p18p16h18t21p18-20b21r20--|
|h18t21p18p16----------------------16h19t21-----------------------------------|
|-------------17----------17h20t23--------------------------------------------|
|----------------18----18-----------------------------------------------------|
|-------------------20--------------------------------------------------------|
|-----------------------------------------------------------------------------|

|------------------------------------------------------------------11-14-11--|
|---------------------------------------------------------------13-----------|
|-22b23r22---------------------------------------------------12--------------|
|----------22---------------------------------------------13-----------------|
|-------------23-20-18-18-18-16-16---------------------14--------------------|
|----------------------------------18-18h20---16-13-14-----------------------|
                                           all done one handed...j/k
|----------11h14p11h14t17p12p11h14t17/20~--------------------------------------|
|-13----13---------------------------------------------------------------------|
|----12------------------------------------------------------------------------|
|------------------------------------------------------------------------------|
|------------------------------------------------------------------------------|
|------------------------------------------8h11h14-8h11h14t17p14p11p8----------|

|-----------------------------------------------------------------------------|
|-----------------------------------------------------------------------------|
|-----------------------------------------------------------------------------|
|-----------------------------10h13h16-10h13h16t19p16p13p10-------------------|
|-9h12h15-9h12h15t18p15p12p9--------------------------------------------------|
|-----------------------------------------------------------------------------|


|-----------------------------------------------------------------------------|
|-------------------------------13h16h19-13h16h19t22p19p16p13-----------------|
|11h14h17-11h14h17t20p17p14p11------------------------------------------------|
|-----------------------------------------------------------------------------|
|-----------------------------------------------------------------------------|
|-----------------------------------------------------------------------------|
                                                not sure about this part
|-14h17h20p17p14h17h20t23p20p17p14h17h20p17p14-------------------------------|
|-----------------------------------------------19p16p13---------------------|
|---------------------------------------------------------t20p17p14p11h14h17-|
|----------------------------------------------------------------------------|
|----------------------------------------------------------------------------|
|----------------------------------------------------------------------------|


|-----------------11h14p11----------11h14p11h14t17p14p11---------11h14p11-----|
|--------------13----------13----13----------------------13---13--------------|
|-----------12----------------12----------------------------12----------------|
|--------13-------------------------------------------------------------------|
|----14-----------------------------------------------------------------------|
|-14--------------------------------------------------------------------------|

|----------11-17p12----------14h17-20p17----------17h20----20b21^r20----------|
|-13----13----------16----16-------------19----19-----------------------------|
|----12----------------17-------------------20--------------------------------|
|-----------------------------------------------------------------------------|
|-----------------------------------------------------------------------------|
|-----------------------------------------------------------------------------|

|------------17h20t21p20p17h20t23p20p17---------------------------------------|
|---------19----------------------------19--------------20b~~~(20.5)----------|
|------20---------------------------------20----------------------------------|
|---19---------------------------------------19-------------------------------|
|-20--------------------------------------------20----------------------------|
|-----------------------------------------------------------------------------|
 /  slide up
| \  slide down
| h  hammer-on
| p  pull-off
| ~  vibrato
| +  harmonic
| x  Mute note





Comments


Popular Necrophagist tabs & chords
Fermented Offal Discharge Bass Tabs
Mutilate The Stillborn Bass Tabs
Only Ash Remains Intro Bass Tabs
Dismembered Self-immolation Tabs
Extreme Unction Tabs
Fermented Offal Discharge Intro Tabs
Mutilate The Stillborn Tabs
Only Ash Remains Intro Tabs
The Stillborn One Tabs
To Breathe In A Casket Tabs


Song lyrics



↑ Back to top | Tablatures and chords are parodies/interpretations of the original songs. You may use it for private study, scholarship, research or language learning purposes only
© 2014 AZChords.com Contact us | Privacy policy | DMCA | Add/correct tabs | Request tabs | Top 50 tabs