>
 >
Smell Of Blood

Smell Of Blood Guitar Tabs

Necrodeath - Smell Of Blood chords, tabs, tablatures, lyrics

Guitar lessons | Add/correct | Request | Top 50 tabs Artists:  A B C D E F G H I J K L M N O P Q R S T U V W X Y Z 0-9

Smell Of Blood Guitar Tabs – Necrodeath

CD, Sheet music, Poster

Do you like Smell Of Blood? Share with your friends now
Bass TabsTabs
"Smell of blood"

Guitar tab released by Maxx



      E  E  E  E  E  E  E  E     E  E  E  E  E  E  E  E   
D#||--------------------------|--------------------------|
A#||--------------------------|--------------------------|
F#||--------------------------|--------------------------|
C#||--2-----2-----2-----2-----|--2-----2-----2-----2-----|
G#||--2-----2-----2-----2-----|--2-----2-----2-----2-----|
D#||--0-----0-----0-----0-----|--0-----0-----0-----0-----|


    S S S S S S S S S S S S E   E     S S S S S S S S S S S S E  E     
|----------------------------------|---------------------------------||
|----------------------------------|---------------------------------||
|*--------------------------7--10--|--------------------------7--6--*||
|*--------------------------7--10--|--------------------------7--6--*||
|---7-6-----6-5-----5-4-----5---8--|--7-6-----6-5-----5-4-----5--4---||
|-------0-0-----0-0-----0-0--------|------0-0-----0-0-----0-0--------||


  S S S S S S S S S S S S E   E     S S S S S S S S E  E  Q     
---------------------------------|-----------------------------|
---------------------------------|-----------------------------|
--------------------------7--10--|------------------5----------|
--------------------------7--10--|------------------5----------|
--7-6-----6-5-----5-4-----5---8--|--7-6-----6-5-----3----------|
------0-0-----0-0-----0-0--------|------0-0-----0-0------------|


  E  E  E  E  E  E  S S E     E  E  E  E  E  E   S S  E   
---------------------------|-----------------------------|
---------------------------|-----------------------------|
---------------------------|-----------------------------|
---------------------------|-----------------------------|
--7-----------------8-7-8--|--7-----------------10-9-10--|
-----0--6--7--8--0---------|-----0--6--7--8--0-----------|


  E  E  E  E  E  E  S S E     E  E  E  E  E  E  E  E   
---------------------------|--------------------------|
---------------------------|--------------------------|
---------------------------|--------------------------|
---------------------------|--------------------------|
--7-----------------8-7-8--|--7--------------8--------|
-----0--6--7--8--0---------|-----0--6--7--8-----------|


  E  E  E  E  E  E  S S E     E  E  E  E  E  E   S S  E   
---------------------------|-----------------------------|
---------------------------|-----------------------------|
---------------------------|-----------------------------|
---------------------------|-----------------------------|
--7-----------------8-7-8--|--7-----------------10-9-10--|
-----0--6--7--8--0---------|-----0--6--7--8--0-----------|


  E  E  E  E  E  E  S S E     E  E  E  E  E  E  Q       H        H         
---------------------------|-------------------------|--------------------|
---------------------------|-------------------------|--------------------|
---------------------------|-------------------------|-----------3--------|
---------------------------|-----------------3--L----|--2--------3--------|
--7-----------------8-7-8--|--7--------------3--L----|--2--------1--------|
-----0--6--7--8--0---------|-----0--6--7--8--1--L----|--0-----------------|


  H        H           H        H           H        H         
--------------------|--------------------|--------------------|
--------------------|--------------------|--------------------|
-----------3--------|-----------3--------|-----------3--------|
--2--------3--------|--2--------3--------|--2--------3--------|
--2--------1--------|--2--------1--------|--2--------1--------|
--0-----------------|--0-----------------|--0-----------------|


  E  E  E  E  E  E  S S E     E  E  E  E  E  E   S S  E   
---------------------------|-----------------------------|
---------------------------|-----------------------------|
---------------------------|-----------------------------|
---------------------------|-----------------------------|
--7-----------------8-7-8--|--7-----------------10-9-10--|
-----0--6--7--8--0---------|-----0--6--7--8--0-----------|


  E  E  E  E  E  E  S S E     E  E  E  E  E  E  Q       H        Q    S S E   
---------------------------|-------------------------|-----------------------|
---------------------------|-------------------------|-----------------------|
---------------------------|-----------------8-------|-----------------------|
---------------------------|-----------------8--L----|--2--------L----4-5-L--|
--7-----------------8-7-8--|--7--------------6--L----|--2--------L----4-5-L--|
-----0--6--7--8--0---------|-----0--6--7--8--6--L----|--0--------L----2-3-L--|


  W                   H        Q    E  E     Q    E  E  Q    Q     
-------------------|----------------------|-----------------------|
-------------------|----------------------|-----------------------|
--5----------------|----------------------|-----------------------|
--5----------------|--2--------L----------|------------------1----|
--3----------------|--2--------L----------|-----------------------|
-------------------|--0--------L----2--3--|--2----L--0--0---------|


  H        Q    S S E     W                   H        Q    E  E   
-----------------------|-------------------|----------------------|
-----------------------|-------------------|----------------------|
-----------------------|--5----------------|----------------------|
--2--------L----4-5-L--|--5----------------|--2--------L----------|
--2--------L----4-5-L--|--3----------------|--2--------L----------|
--0--------L----2-3-L--|-------------------|--0--------L----2--3--|


  Q    E  E  Q    Q       S S S S S S S S S S S S E   E   
-----------------------|---------------------------------|
-----------------------|---------------------------------|
-----------------------|--------------------------7--10--|
------------------1----|--------------------------7--10--|
-----------------------|--7-6-----6-5-----5-4-----5---8--|
--2----L--0--0---------|------0-0-----0-0-----0-0--------|


  S S S S S S S S S S S S E  E     S S S S S S S S S S S S E   E   
--------------------------------|---------------------------------|
--------------------------------|---------------------------------|
--------------------------7--6--|--------------------------7--10--|
--------------------------7--6--|--------------------------7--10--|
--7-6-----6-5-----5-4-----5--4--|--7-6-----6-5-----5-4-----5---8--|
------0-0-----0-0-----0-0-------|------0-0-----0-0-----0-0--------|


  S S S S S S S S S S S S E  E     E  E  E  E  E  E  S S E   
--------------------------------|---------------------------|
--------------------------------|---------------------------|
--------------------------5-----|---------------------------|
--------------------------5-----|---------------------------|
--7-6-----6-5-----5-4-----3-----|--7-----------------8-7-8--|
------0-0-----0-0-----0-0-------|-----0--6--7--8--0---------|


  E  E  E  E  E  E   S S  E     E  E  E  E  E  E  S S E   
-----------------------------|---------------------------|
-----------------------------|---------------------------|
-----------------------------|---------------------------|
-----------------------------|---------------------------|
--7-----------------10-9-10--|--7-----------------8-7-8--|
-----0--6--7--8--0-----------|-----0--6--7--8--0---------|


  E  E  E  E  E  E  E  E     E  E  E  E  E  E  S S E   
--------------------------|---------------------------|
--------------------------|---------------------------|
--------------------------|---------------------------|
--------------------------|---------------------------|
--7--------------8--------|--7-----------------8-7-8--|
-----0--6--7--8-----------|-----0--6--7--8--0---------|


  E  E  E  E  E  E   S S  E     E  E  E  E  E  E  S S E   
-----------------------------|---------------------------|
-----------------------------|---------------------------|
-----------------------------|---------------------------|
-----------------------------|---------------------------|
--7-----------------10-9-10--|--7-----------------8-7-8--|
-----0--6--7--8--0-----------|-----0--6--7--8--0---------|


  E  E  E  E  E  E  Q       H        Q    S S E     W                 
-------------------------|-----------------------|-------------------|
-------------------------|-----------------------|-------------------|
-------------------------|-----------------------|--5----------------|
-----------------3--L----|--2--------L----4-5-L--|--5----------------|
--7--------------3--L----|--2--------L----4-5-L--|--3----------------|
-----0--6--7--8--1--L----|--0--------L----2-3-L--|-------------------|


  H        Q    E  E     Q    E  E  Q    Q       H        Q    S S E   
----------------------|-----------------------|-----------------------|
----------------------|-----------------------|-----------------------|
----------------------|-----------------------|-----------------------|
--2--------L----------|------------------1----|--2--------L----4-5-L--|
--2--------L----------|-----------------------|--2--------L----4-5-L--|
--0--------L----2--3--|--2----L--0--0---------|--0--------L----2-3-L--|


  W                   H        Q    E  E     Q    E  E  Q    Q     
-------------------|----------------------|-----------------------|
-------------------|----------------------|-----------------------|
--5----------------|----------------------|-----------------------|
--5----------------|--2--------L----------|------------------1----|
--3----------------|--2--------L----------|-----------------------|
-------------------|--0--------L----2--3--|--2----L--0--0---------|


  H        Q    S S E     W                   H        Q    E  E   
-----------------------|-------------------|----------------------|
-----------------------|-------------------|----------------------|
-----------------------|--5----------------|----------------------|
--2--------L----4-5-L--|--5----------------|--2--------L----------|
--2--------L----4-5-L--|--3----------------|--2--------L----------|
--0--------L----2-3-L--|-------------------|--0--------L----2--3--|


  Q    E  E  Q    Q       H        Q    S S E     W                 
-----------------------|-----------------------|-------------------|
-----------------------|-----------------------|-------------------|
-----------------------|-----------------------|--5----------------|
------------------1----|--2--------L----4-5-L--|--5----------------|
-----------------------|--2--------L----4-5-L--|--3----------------|
--2----L--0--0---------|--0--------L----2-3-L--|-------------------|


  H        Q    E  E     Q    E  E  Q    Q         E   E  E  E  Q    E  E   
----------------------|-----------------------||---------------------------|
----------------------|-----------------------||---------------------------|
----------------------|-----------------------||*--------------------------|
--2--------L----------|------------------1----||*-----------------------8--|
--2--------L----------|-----------------------||----------7--8--7----------|
--0--------L----2--3--|--2----L--0--0---------||---0~--0-------------0-----|


  E  E  E  E  Q    E  E     E   E  E  E  Q    E  E     E  E  E  E  H         
-------------------------|--------------------------|-----------------------|
-------------------------|--------------------------|-----------------------|
-------------------------|--------------------------|-----------------------|
--L-------------------7--|-----------------------8--|--L-----------9--------|
--------7--8--7----------|---------7--8--7----------|--------7--8-----------|
-----0-------------0-----|--0~--0-------------0-----|-----0-----------------|


  E   E  E  E  Q    E  E     E  E  E  E  Q    E  E     E   E  E  E  Q    E  E   
--------------------------|-------------------------|--------------------------|
--------------------------|-------------------------|--------------------------|
--------------------------|-------------------------|--------------------------|
-----------------------8--|--L-------------------7--|-----------------------8--|
---------7--8--7----------|--------7--8--7----------|---------7--8--7----------|
--0~--0-------------0-----|-----0-------------0-----|--0~--0-------------0-----|


  E  E  E  E  H             E  E  E  E   Q    E  E     W                 
------------------------||--------------------------|-------------------|
------------------------||--------------------------|-------------------|
-----------------------*||--------------------------|-------------------|
--L--------------------*||-----------9--10----------|-------------------|
--------7--8--5---------||-----------7---8----9--8--|--L----------------|
-----0------------------||--0--0--0-----------7--6--|--L----------------|


  E  E  E  E   Q    E   E     W                   E  E  E  E   Q    E  E   
---------------------------|-------------------|--------------------------|
---------------------------|-------------------|--------------------------|
---------------------------|-------------------|--------------------------|
-----------9--10-----------|-------------------|-----------9--10----------|
-----------7---8----9--11--|--L----------------|-----------7---8----9--8--|
--0--0--0-----------7---9--|--L----------------|--0--0--0-----------7--6--|


  W                   E  E  E  E   Q    E   E     W                 
-------------------|---------------------------|-------------------|
-------------------|---------------------------|-------------------|
-------------------|---------------------------|-------------------|
-------------------|-----------9--10-----------|-------------------|
--L----------------|-----------7---8----9--11--|--L----------------|
--L----------------|--0--0--0-----------7---9--|--L----------------|


    E   E  E  E  Q    E  E     E  E  E  E  Q    E  E   
|---------------------------|-------------------------|
|---------------------------|-------------------------|
|*--------------------------|-------------------------|
|*-----------------------8--|--L-------------------7--|
|----------7--8--7----------|--------7--8--7----------|
|---0~--0-------------0-----|-----0-------------0-----|


  E   E  E  E  Q    E  E     E  E  E  E  H           E   E  E  E  Q    E  E   
--------------------------|-----------------------|--------------------------|
--------------------------|-----------------------|--------------------------|
--------------------------|-----------------------|--------------------------|
-----------------------8--|--L-----------9--------|-----------------------8--|
---------7--8--7----------|--------7--8-----------|---------7--8--7----------|
--0~--0-------------0-----|-----0-----------------|--0~--0-------------0-----|


  E  E  E  E  Q    E  E     E   E  E  E  Q    E  E     E  E  E  E  H           
-------------------------|--------------------------|------------------------||
-------------------------|--------------------------|------------------------||
-------------------------|--------------------------|-----------------------*||
--L-------------------7--|-----------------------8--|--L--------------------*||
--------7--8--7----------|---------7--8--7----------|--------7--8--5---------||
-----0-------------0-----|--0~--0-------------0-----|-----0------------------||


  E  E  E  E   Q    E  E     W                   E  E  E  E   Q    E   E   
--------------------------|-------------------|---------------------------|
--------------------------|-------------------|---------------------------|
--------------------------|-------------------|---------------------------|
-----------9--10----------|-------------------|-----------9--10-----------|
-----------7---8----9--8--|--L----------------|-----------7---8----9--11--|
--0--0--0-----------7--6--|--L----------------|--0--0--0-----------7---9--|


  W                   E  E  E  E   Q    E  E     W                 
-------------------|--------------------------|-------------------|
-------------------|--------------------------|-------------------|
-------------------|--------------------------|-------------------|
-------------------|-----------9--10----------|-------------------|
--L----------------|-----------7---8----9--8--|--L----------------|
--L----------------|--0--0--0-----------7--6--|--L----------------|


  E  E  E  E   Q    E   E     W                     Q.     Q.     Q     
---------------------------|-------------------||----------------------|
---------------------------|-------------------||----------------------|
---------------------------|-------------------||*---------------------|
-----------9--10-----------|-------------------||*---------2-----------|
-----------7---8----9--11--|--L----------------||----------------------|
--0--0--0-----------7---9--|--L----------------||---0-------------0----|


  Q.     Q.     Q       Q.     Q.     Q       Q.     Q.     Q     4x
---------------------|---------------------|----------------------||
---------------------|---------------------|----------------------||
---------------------|---------------------|---------------------*||
---------3-----------|---------4-----------|---------5------6----*||
---------------------|---------------------|----------------------||
--1-------------1----|--2-------------2----|--3-------------------||


   S S S S S S S S S S S S E   E     S S S S S S S S S S S S E  E     
----------------------------------|---------------------------------||
----------------------------------|---------------------------------||
*--------------------------7--10--|--------------------------7--6--*||
*--------------------------7--10--|--------------------------7--6--*||
---7-6-----6-5-----5-4-----5---8--|--7-6-----6-5-----5-4-----5--4---||
-------0-0-----0-0-----0-0--------|------0-0-----0-0-----0-0--------||


  S S S S S S S S S S S S E   E     S S S S S S S S E  E  Q     
---------------------------------|-----------------------------|
---------------------------------|-----------------------------|
--------------------------7--10--|------------------5----------|
--------------------------7--10--|------------------5----------|
--7-6-----6-5-----5-4-----5---8--|--7-6-----6-5-----3----------|
------0-0-----0-0-----0-0--------|------0-0-----0-0------------|


    H        Q    S S E     W                   H        Q    E  E   
|------------------------|-------------------|----------------------|
|------------------------|-------------------|----------------------|
|*-----------------------|--5----------------|----------------------|
|*--2--------L----4-5-L--|--5----------------|--2--------L----------|
|---2--------L----4-5-L--|--3----------------|--2--------L----------|
|---0--------L----2-3-L--|-------------------|--0--------L----2--3--|


  Q    E  E  Q    Q     4x  W                  
------------------------||-------------------||
------------------------||-------------------||
-----------------------*||-------------------||
------------------1----*||--2----------------||
------------------------||--2----------------||
--2----L--0--0----------||--0----------------||





Comments


Popular Necrodeath tabs & chords
Evidence From Beyond Bass Tabs
Mealy Mouthed Hypocrisy Bass Tabs
Perseverance Pays Bass Tabs
Petition For Mercy Bass Tabs
Queen Of Desire Bass Tabs
The Flag Bass Tabs
The Mark Of Dr. Z Bass Tabs
Mater Tenebrarum Tabs
Red As Blood Tabs
Red As Blood 1 Tabs


Song lyrics



↑ Back to top | Tablatures and chords are parodies/interpretations of the original songs. You may use it for private study, scholarship, research or language learning purposes only
© 2014 AZChords.com Contact us | Privacy policy | DMCA | Add/correct tabs | Request tabs | Top 50 tabs