» » »

Necrodeath, Smell Of Blood Bass tabs (ver.1)

Artists:  A B C D E F G H I J K L M N O P Q R S T U V W X Y Z # 

Smell Of Blood Bass tabs (ver.1)

Necrodeath Tabs
 Rating:
4/5 (4 votes)
Smell Of Blood lessons Tabs too difficult? Try these video lessons and learn fast
1
                Smell of Blood – Necrodeath
Solo Drums
Intro:
G---|
D---|
A---| x 8
E-0-|

Pre-Verse 1:
G---------|--------------------------------|
D---------|--------------------------------|
A---------|-7p6-6p5-5p4-5h8-7p6-6p5-5p4-43-|
E-0-------|--------------------------------|

G--------------------------|
D--------------------------|
A-7p6-6p5-5p4-5h8-7p6-6p5-5|
E--------------------------|

Verse 1:
G------------------------------------------------|
D------------------------------------------------|
A---7-----8p7h8-7-----10p9h10-7-----8p7h8----8---|
E----06786-------06786---------06786-----0678----|

2nd part Verse 1
G-------------------------------------------------|
D-------------------------------------------------|
A---7-----8p7h8-7-----10p9h10-7-----8p7h8-7-------|
E----06786-------06786---------06786-------0678-1-|

Break:
G------|
D------|
A----1-| x4
E---0--|

2nd part Verse 1

Chorus:
G------------------|
D----------------1-|
A-----3------------| x2
E-0-23---0-232-00--|

Pre-Verse 1
Verse 1 + 2nd part Verse 1 = Verse 2
Chorus x4


Pre-Verse 3:
G--------------------|
D--------------------|
A----------------785-|
E-0---00-00-00-00----|

Verse 3:
G--------------------------------|
D---------8-------7-------8----9-|
A---7h8p7---7h8p7---7h8p7---7h8--|
E-00-----0-0-----0-0-----0-0-----|

G--------------------------------|
D---------8-------7-------8------|
A---7h8p7---7h8p7---7h8p7---7h85-|
E-00-----0-0-----0-0-----0-0-----|

Chorus 2:
G------------------|
D------------------|
A----78------78----| x2
E-000--76-000---79-|

Verse 3 x2
Chorus 2

Bridge:
G-----------------------|
D----2----3----4-----56-|
A-----------------------| x4
E-0----01----12----23---|

Pre-Verse 1 x2
Chorus x4
End
            
Submit corrections

comments powered by Disqus
↑ Back to top | Necrodeath Bass for Smell Of Blood. Lyrics for acoustic guitar and electric guitar. 1 Tablatures and chords are parodies/interpretations of the original songs. You may use it for private study, scholarship, research or language learning purposes only