» » »

N-dubz, Strong Again Bass tabs (ver.1)

Artists:  A B C D E F G H I J K L M N O P Q R S T U V W X Y Z # 

Strong Again Bass tabs (ver.1)

N-dubz Tabs
 Rating:
3.6/5 (5 votes)
Strong Again lessons Tabs too difficult? Try these video lessons and learn fast
                N-Dubz - Strong Again

Intro 0:00
0:08
G: ------------------------------------------------------|
D: ------------------------------------------------------|
A: ------------------------------------------------------|
E: -2-1-2-1~-2-1-2-1~-2-1-2-1~---------------------------|

Verse 1 0:18
G: --------------|--------------|-------------|-------------|
D: --------------|--------------|-------------|-------------|x2
A: --------------|--------------|-------------|-------------|
E: -3-3-3-3-3-3/2|-2-2-2-2-2-2/1|1-1-1-1-1-1/0|0-0-0-0-0-0/2|

Chorus 0:45
G: -------------------------------------------------------|
D: -------------------------------------------------------|
A: -------------------------------------------------------|
E: -3-3-3-3-3-3-3-3-4-4-4-4-4-4-4-4-5-5-5-5-5-5-5-5-4-4-4-|

G: -----------\-|
D: -------------|x2
A: -------------|
E: -4-4-4-4-4---|

Verse Intro (Aha, Aha...) 1:03
G: ------------------------------------------------------|
D: ------------------------------------------------------|
A: ------------------------------------------------------|
E: -2-1-2-1~-2-1-2-1~-2-1-2-1~---------------------------|

Verse 2 1:13
G: --------------|--------------|-------------|-------------|
D: --------------|--------------|-------------|-------------|x2
A: --------------|--------------|-------------|-------------|
E: -3-3-3-3-3-3/2|-2-2-2-2-2-2/1|1-1-1-1-1-1/0|0-0-0-0-0-0/2|

Chorus 1:40
G: -------------------------------------------------------|
D: -------------------------------------------------------|
A: -------------------------------------------------------|
E: -3-3-3-3-3-3-3-3-4-4-4-4-4-4-4-4-5-5-5-5-5-5-5-5-4-4-4-|

G: -----------\-|
D: -------------|x4
A: -------------|
E: -4-4-4-4-4---|

Bridge 2:15
G: ---------------------------------------------------------|
D: ---------------------------------------------------------|
A: ---------------------------------------------------------|
E: -0-0-0-0-0-0-0-0-1-1-1-1-1-1-1-1-0-0-0-0-0-0-0-0-2-2-2-2-|

G: ------------| \
D: ------------| x2
A: ------------|
E: -1-1-1-1----| /

Chorus 2:34
G: -------------------------------------------------------|
D: -------------------------------------------------------|
A: -------------------------------------------------------|
E: -3-3-3-3-3-3-3-3-4-4-4-4-4-4-4-4-5-5-5-5-5-5-5-5-4-4-4-|

	           |Play first 3 times not 4th|
G: ------|----\-|
D: ------|------|x4
A: ------|------|
E: -4-4-4|4-4---|
            
Submit corrections

comments powered by Disqus
↑ Back to top | N-dubz Bass for Strong Again. Lyrics for acoustic guitar and electric guitar. Tablatures and chords are parodies/interpretations of the original songs. You may use it for private study, scholarship, research or language learning purposes only