>
 >
Razamanaz 1

Razamanaz 1 Bass Tabs

Nazareth - Razamanaz 1 chords, tabs, tablatures, lyrics

Guitar lessons | Add/correct | Request | Top 50 tabs Artists:  A B C D E F G H I J K L M N O P Q R S T U V W X Y Z 0-9

Razamanaz 1 Bass Tabs – Nazareth

CD, Sheet music, Poster

Do you like Razamanaz 1? Share with your friends now
Bass TabsBass Tabs v2Tabs
                           Razamanaz-Nazareth

g--------------------------------------------------------------------|
d-------------------------------------------0---2--------------------|
a--------------------------------------------------------------------|
e-----3-----5---5-----3--3----3---4---5------------------------------|

(3x)

g--------------------------------------------------------------------|
d----------------------------------------0---2-----------------------|
a---------------------------------------------------0----------------|
e---5---5-----3---3------3----4----5---------------------------------|

stop playin while lyrics are on on 3 time dont play the open a for bar above


           (3x)
g--|----------------------------|--------------------------------------|
d--|----------------------------|--------------------------------------|
a--|-5--5------------5-5---------|-------------------------------------|
e--|---------2--2-----------2--2--|---4--4-----3--3---22---------------|


last time play through to end for bar above


                      first time                           2nd time
g--/-------------------------------------------------\----------------------|
d--|-.-----------------------------------------------|----------------------|
a--|-.----------------------------------------------|--------2---3--4-------|
e--\-----5-5----5---5----5--3----5---5-5---5--5-3--/-----5------------------|


             4x
g--|---------------------------\----------------------------------------|
d--|----------------------------\------2--2-----------------------------|
a--|-5--5------------5--5--------\-------------4--4----2--2-------------|
e--\---------2--2-----------2-2--\--------------------------------------|

g-----------------------------------------------------------------|
d---2-2-----------------------------------------------------------|
a---------4--4---2--2---------------------------------------------|
e-----------------------4--4--------------------------------------|


               2 x                                   2x
g------------------------------------------|----------------------------------|
d------------------------------------0---2-|-0------------------------0--2----|
a------------------------------------------|----------------------------------|
e-----5----5--3--3-----3--4--5-------------|---5---5--3-3---3--4--5-----------|

             3x
g--------------------------------------/-------------------------------------------------|
d--------------------------------------/----5--5-----------------------------------------|
s--5---5--------------5---5-----------/--------------------------------------------------|
e------------2----2-----------2---2---/-----------2--2---3--3----4--4--------------------|

g------------------------------------------------------------------------------------|
d------------------------------------------------------------------------------------|
a------------------------------------------------------------------------------------|
e--5--5----5----5-----5--3--------5----5--5-----5---5--3-----5--5----5----5---5---3--|

                                          4x
g------------------------|-/-----------------------------\------------------------------------------------|
d------------------------|----------------------------------2--2--------------------2--2------------------|
a-------2---3---4--------|--5--5-------------------2--2-----------4--4--2-2--4--4---------4-4---2-2-------|
e--5---------------------|-\--------2--2----5--5---------/-------------------------------------------4-4--|
                      2x
g--------/----------------------------------\-----------------------------0--2--|
d-----------------------------------0---2---------------------------------------|
a------------------------------------------------5-----5--3--3--5---------------|
e-5-------\-5----5---3---3--5---------------/-----------------------------------|

                                                  2x
g----------------------------------/-------------------------------------\--|
d-------------------------0--2------------------------------------0-2-------|
a-------------------------------------0-------------------------------------|
e--5----5---3---3--5---------------\-------5---5-3-----3-4-5-------------/--|

        3x
g---------------------------------|--------------------------------------------------------------------|
d----------------------------------|-------------------------------------------------------------------|
a--5--5-------------------2---2---|-5--5---------------------------------------------------------------|
e---------2--2----5---5-----------|---------2--2---3--3----4--4----------5--5------5-----5-------5--3--|


g-------------------------------------------------------------------0-0--1-1-2--2--|
d-------------------------------------------------0--0--1-1--2-2-------------------|
a---------------------------------0----0--4--4-------------------------------------|
e--5--5------5---5----5--3---------------------------------------------------------|

        4x
g-----------------------------------\----------------------------------------------------|
d-----------------------------------\---2-2----2-----2----2--2----2--2-------------------|
a--5---5------------------2---2-----|-----------------------------------4-4---2-2--------|
e-----------2---2--5--5-------------|----------------------------------------------4--4--|
                                                 3x
g----2--------3-------4-------5-------6-----/-----------------------------\----------------------|
d------------------------------------------------------------------------------------------------|
a-0-------1------2-------3-------4--------------5--5----------------2--2------5-5----------------|
e-------------------------------------------\----------2--2---5--5---------/-------2-2--3-3-4-4--|

g--------------------------------------------------------------------------------------------|
d--------------------------------------------------------------------------------------------|
a-------------------------------------------------------------------------2--2--3--3---4--4--|
e-5-5----5----5-----5--3----5--5---5---5---5-3---5--5--5--5---5-3---5--5---------------------|
 4x
g-----------------------------|--------------------------------------------------------------------|
d-----------------------------|--------------------------------------------------------------------|
s--5---5----------------2--2--|--7---7--------------------4--4------7---7---4--4-------------------|
e---------2---2----5--5-------|------------4---4---7---7----------------------------7---7----4--4--|
           2x
g-----------------------------------------------\-------------------------------------------------------|
d-------------------------------------------------------------------------------------------------------|
a----------------------------------------------------5--5--5--5-----5-5--5--5---5-5--5-5----5-5-5--5-5--|
e-5--5---5---5---5--5----5--5---5----5-----5-3--/-------------------------------------------------------|

g----------------------------------------------------------------------------------------------|
d----------------------------------------------------------------------------------------------|
a-------------------------------------------------7--77-7---7--7--7--7---7--7-7-7--7--7--7--7--|
e--5-5----5--5--5---5--55-----5--55---5--5-3---------------------------------------------------|

g--------------------------------------------------------------|
d--------------------------------------------------------------|
a--5--5--5---5--5-5--5--5----5--3------------------------------|
e----------------------------------2--2---3--3--4--4-----------|

thats it thats all theress nno slides have fun work out the timing





Comments


Popular Nazareth tabs & chords
Broken Down Angel Chords
Every Time It Rains Chords
Heart's Grown Cold Chords
Sunshine Chords
Broken Down Angel Tabs
Expect No Mercy Intro Tabs
Miss Misery 2 Tabs
Star Tabs
This Flight Tonight 1 Tabs
Whiskey Drinkin Woman Intro Tabs


Song lyrics



↑ Back to top | Tablatures and chords are parodies/interpretations of the original songs. You may use it for private study, scholarship, research or language learning purposes only
© 2014 AZChords.com Contact us | Privacy policy | DMCA | Add/correct tabs | Request tabs | Top 50 tabs