» » »

Vietnam South Tabs (ver.1)

Artists:  A B C D E F G H I J K L M N O P Q R S T U V W X Y Z # 

Vietnam South Tabs (ver.1)

National Anthems
Rating:
0/5 (0 votes)

Hard to play? Try these video lessons and learn fast.
                Poster: Duc Nguyen
South Vietnam National Anthem

This is pretty much 100% correct.

Standard Tuning

 2/4
  Gtr I
|--------||-------|---------|------|-----------|----|
|--------||-1---3-|---1-----|------|-----------|----|
|------2-||-------|-2-----0-|-2----|-(2)-------|----|
|----3---||-------|-----3---|------|-----------|----|
|--3-----||-------|---------|------|-----3-3-3-|----|
|--------||-------|---------|------|-----------|----|


|-------|---------|------|---------|--------|----|
|-------|---------|------|---------|--------|----|
|-------|-0-2---0-|-2----|-(2)-----|-0--0-2-|----|
|-3--3--|-----3---|------|------3--|--------|----|
|-------|---------|------|---------|--------|----|
|-------|---------|------|---------|--------|----|


|-------|--------|-------|--------|------|----|
|-------|-1--1-3-|-1-----|--------|------|----|
|-0-----|--------|-------|-0--0-2-|-0----|----|
|----3--|--------|----3--|--------|----3-|----|
|-------|--------|-------|--------|------|----|
|-------|--------|-------|--------|------|----|


|--------|------|-------|--------|------|----|
|-1--1-3-|------|-------|--------|------|----|
|--------|-2----|-------|------0-|-2----|----|
|--------|------|-3--3--|-3--3---|------|----|
|--------|----3-|-------|--------|------|----|
|--------|------|-------|--------|------|----|


|---------|-------|--------|------|---------|----|
|---------|-------|--------|-1----|-(1)-----|----|
|-(2)-----|-2---2-|-2----2-|------|---------|----|
|---------|-------|----3---|------|------3--|----|
|------3--|-------|--------|------|---------|----|
|---------|-------|--------|------|---------|----|


|-------|----1--|-------|-------|-------|----|
|-3---3-|-3-----|-0---3-|-1-----|-1---1-|----|
|-------|-------|-------|-------|-------|----|
|-------|-------|-------|----3--|-------|----|
|-------|-------|-------|-------|-------|----|
|-------|-------|-------|-------|-------|----|


|-------|-------|-------|--------|--------|----|
|-1--3--|-0---1-|-3-----|-3--3-3-|-3--0-3-|----|
|-------|-------|-------|--------|--------|----|
|-------|-------|----3--|--------|--------|----|
|-------|-------|-------|--------|--------|----|
|-------|-------|-------|--------|--------|----|


|-1----|-------|--------|--------|------|----|
|------|-1-----|-1------|--------|------|----|
|------|----2--|------2-|-0--0-2-|------|----|
|------|-------|----3---|--------|-3----|----|
|------|-------|--------|--------|------|----|
|------|-------|--------|--------|------|----|


|--------|------|-----------|-1----|--------|----|
|----1-1-|-1----|-(1)-1-3-1-|------|--------|----|
|--------|------|-----------|------|-2--2-2-|----|
|--------|------|-----------|------|--------|----|
|-3------|------|-----------|------|--------|----|
|--------|------|-----------|------|--------|----|


|------|-----------|------|-------|-------|-------|----|
|------|-----------|-1----|-------|-------|----1--|----|
|-2----|-(2)-2---2-|------|-0--2--|-------|-2-----|----|
|------|-------3---|------|-------|-3-----|-------|----|
|------|-----------|------|-------|-----3-|-------|----|
|------|-----------|------|-------|-------|-------|----|


|-------|----1--|-------|---------|------|--------|----|
|-------|-1-----|-1-----|-1-------|------|--------|----|
|-2-----|-------|----2--|-----2-0-|------|--------|----|
|-----3-|-------|-------|---3-----|-3----|-(3)----|----|
|-------|-------|-------|---------|------|--------|----|
|-------|-------|-------|---------|------|--------|----|
            
Hard to play? Try these video lessons and learn fast. | Correct




comments powered by Disqus
↑ Back to top | Tablatures and chords are parodies/interpretations of the original songs. You may use it for private study, scholarship, research or language learning purposes only