>
 >
Swedis National Anthem

Swedis National Anthem Guitar Tabs

National Anthems - Swedis National Anthem chords, tabs, tablatures, lyrics

Guitar lessons | Add/correct | Request | Top 50 tabs Artists:  A B C D E F G H I J K L M N O P Q R S T U V W X Y Z 0-9

Swedis National Anthem Guitar Tabs – National Anthems

CD, Sheet music, Poster

Do you like Swedis National Anthem? Share with your friends now
Tabs
_________________________
|         | |            |
|         | |            |
|         | |            |
|_________| |____________|
|_________   ____________|     This is one of the most beutiful songs in the world!
|         | |            |
|         | |            |
|         | |            |
|_________|_|____________|

Play the song 4 times. 1 time/verse.

e|-7-7--3-3-3--5--7-7--5-3-2--3-5--2-3-5-2-7-3-0--|
B|----------------------------------------------2-|
G|------------------------------------------------|
D|------------------------------------------------|
A|------------------------------------------------|
E|------------------------------------------------|

e|---------------------------|
B|-6--7-7-9-6-6-7--4-2-4-6-2-|
G|---------------------------|
D|---------------------------|
A|---------------------------|
E|---------------------------|

e|-----------------8-7-5-3--------------------8-7-5-3-|
B|-2-7--6-7-9-11-7------------2-7--6-7-9-11-7---------|
G|----------------------------------------------------|
D|----------------------------------------------------|
A|----------------------------------------------------|
E|----------------------------------------------------|

Lyrics:

Du gamla, Du fria, Du fjällhöga nord
Du tysta, Du glädjerika sköna!
Jag hälsar Dig, vänaste land uppå jord,
/:Din sol, Din himmel, Dina ängder gröna.:/

Du tronar på minnen från fornstora dar,
då ärat ditt namn flög över jorden.
Jag vet att du är och förblir vad du var.
/:Ja, jag vill leva jag vill dö i Norden.:/

Jag städs vill dig tjäna mitt älskade land,
din trohet till döden vill jag svära.
Din rätt, skall jag värna, med håg och med hand,
/:Din fana, högt den bragderika bära.:/

Med Gud skall jag kämpa för hem och för härd,
för Sverige den kära fosterjorden.
Jag byter dig ej, mot allt i en värld
:/Nej, jag vill leva jag vill dö i Norden:/





Comments


Popular National Anthems tabs & chords
British National Anthem Tabs
Der Er Et Yndigt Land Tabs
Flower Of Scotland Tabs
Flower Of Scotland 1 Tabs
Norway Tabs
O Canada Tabs
Star Spangled Banner 1 Tabs
Star Spangled Banner 2 Tabs
Vietnam South Tabs
Welsh National Anthem Tabs


Song lyrics



↑ Back to top | Tablatures and chords are parodies/interpretations of the original songs. You may use it for private study, scholarship, research or language learning purposes only
© 2014 AZChords.com Contact us | Privacy policy | DMCA | Add/correct tabs | Request tabs | Top 50 tabs