» » »

National Anthems, Scotland The Brave Tabs (ver.1)

Artists:  A B C D E F G H I J K L M N O P Q R S T U V W X Y Z # 

Scotland The Brave Tabs (ver.1)

National Anthems Tabs
 Rating:
4/5 (4 votes)
Scotland The Brave lessons Tabs too difficult? Try these video lessons and learn fast
1
                

e|----|-----------------------|-17-17-17----------|
B|-17-|--------------------17-|----------17-------|
G|----|-14-14-16-17-16--17----|-------------17-14-|
D|----|-----------------------|-------------------|
A|----|-----------------------|-------------------|
E|----|-----------------------|-------------------|

e|----------------------|-------------------------|
B|-15-18-15----17-------|----17-17-18-17-15-------|
G|----------17----17-14-|-16----------------17-16-|
D|----------------------|-------------------------|
A|----------------------|-------------------------|
E|----------------------|-------------------------|

e|----------------------|-17-17-17----------|
B|-------------------17-|----------17-------|
G|-14-14-16-17-16-17----|-------------17-14-|
D|----------------------|-------------------|
A|----------------------|-------------------|
E|----------------------|-------------------|

e|----------------------|-------------------|
B|-15-18-15----17-------|----------------17-|
G|----------17----17-14-|-16-14-16-14-17----|
D|----------------------|-------------------|
A|----------------------|-------------------|
E|----------------------|-------------------|

e|-17-17-17----------|-17-17-17----------|-17-17-15----17-15-|
B|----------17-------|----------17----17-|----------18-------|
G|-------------17-14-|-------------17----|-------------------|
D|-------------------|-------------------|-------------------|
A|-------------------|-------------------|-------------------|
E|-------------------|-------------------|-------------------|

e|----17-15----------------|----------------------|
B|-18-------18-17-15-------|-------------------17-|
G|-------------------17-16-|-14-14-16-17-14-17----|
D|-------------------------|----------------------|
A|-------------------------|----------------------|
E|-------------------------|----------------------|

e|-17-17-17----------|----------------------|-------------|
B|----------17-------|-15-18-15----17-------|-------------|
G|-------------17-14-|----------17----17-14-|-16-14-16-14-|
D|-------------------|----------------------|-------------|
A|-------------------|----------------------|-------------|
E|-------------------|----------------------|-------------|
            
Submit corrections

comments powered by Disqus
↑ Back to top | National Anthems Tabs for Scotland The Brave. Lyrics for acoustic guitar and electric guitar. 1 Tablatures and chords are parodies/interpretations of the original songs. You may use it for private study, scholarship, research or language learning purposes only