» » »

National Anthems, Norway Tabs (ver.1)

Artists:  A B C D E F G H I J K L M N O P Q R S T U V W X Y Z # 

Norway Tabs (ver.1)

National Anthems Tabs
 Rating:
4/5 (4 votes)
Norway lessons Tabs too difficult? Try these video lessons and learn fast
                National Anthem of Norway
Posted by Eirik Ramsøy.

Tuning is standard, the H is Norwegian instead of B.

e|-10--8--7-------------7--8---10--12--10--8--7------------------|
H|-----------10--8--10-------------------------------------------|
G|---------------------------------------------------------------|
D|---------------------------------------------------------------|
A|---------------------------------------------------------------|
E|---------------------------------------------------------------|

e|-12--10--8--7------7--8--10---10--12--12--14--15---------------|
H|---------------10----------------------------------------------|
G|---------------------------------------------------------------|
D|---------------------------------------------------------------|
A|---------------------------------------------------------------|
E|---------------------------------------------------------------|

e|-15--15--14--14--12--12--10~~---7---12--12--10--10--7----------|
H|---------------------------------------------------------------|
G|---------------------------------------------------------------|
D|---------------------------------------------------------------|
A|---------------------------------------------------------------|
E|---------------------------------------------------------------|

e|--10--10--10--12--12--14--14--15---15--15--14--15--17----------|
H|---------------------------------------------------------------|
G|---------------------------------------------------------------|
D|---------------------------------------------------------------|
A|---------------------------------------------------------------|
E|---------------------------------------------------------------|

e|--17--17--19--20--19--17--15---14--12--10--12--12--14--15~~~~--|
H|---------------------------------------------------------------|
G|---------------------------------------------------------------|
D|---------------------------------------------------------------|
A|---------------------------------------------------------------|
E|---------------------------------------------------------------|
            
Submit corrections

comments powered by Disqus
↑ Back to top | National Anthems Tabs for Norway. Lyrics for acoustic guitar and electric guitar. Tablatures and chords are parodies/interpretations of the original songs. You may use it for private study, scholarship, research or language learning purposes only