» » »

Der Er Et Yndigt Land Tabs (ver.1)

Artists:  A B C D E F G H I J K L M N O P Q R S T U V W X Y Z # 

Der Er Et Yndigt Land Tabs (ver.1)

National Anthems
Rating:
0/5 (0 votes)

Hard to play? Try these video lessons and learn fast.
                this is a very beautiful song!

e|------------------------------------------------------------|
H|------------------------------------------------------------|
G|----------0--3--3-2-0-0---------------------0---------------|
D|--3--3-0---------------3--3----------0--2-3---3--2--3-------|
A|-1------1---1---------------0--0-1-3------------------------|
E|------------------------------------------------------------|


e|---------------------------------------------------------------|
H|---------------------------------------------------------------|
G|---2--2-0------3-3---0--0-0-0-0-------------0-3--3-2-0-0-------|
D|-3--------3--3-----0------------4-3-3-2-1-0--------------3-----|
A|------------------------------------------------------------0-1|
E|---------------------------------------------------------------|
            
Hard to play? Try these video lessons and learn fast. | Correct




comments powered by Disqus
↑ Back to top | Tablatures and chords are parodies/interpretations of the original songs. You may use it for private study, scholarship, research or language learning purposes only