>
 >
Shes Got The Drugs

Shes Got The Drugs Guitar Tabs

Nashville Pussy - Shes Got The Drugs chords, tabs, tablatures, lyrics

Guitar lessons | Add/correct | Request | Top 50 tabs Artists:  A B C D E F G H I J K L M N O P Q R S T U V W X Y Z 0-9

Shes Got The Drugs Guitar Tabs – Nashville Pussy

CD, Sheet music, Poster

Do you like Shes Got The Drugs? Share with your friends now
Tabs
she's got the drugs


nashville pussy








                                               
e:----------------------------------|
B:----------------------------------|
G:----------------------------------|
D:----------------------------------|
A:-4--x-x-x-x-x-x-x-x--4-4----7-7---|
E:-2--x-x-x-x-x-x-x-x--2-2-0--5-5-0-|


e:-------------------------------3/12\3-|
B:-2bf----------------------------------|
G:-4bf--4b--4b--4p2---2-----------------|
D:------------------4-----4-2-4---------|
A:--------------------------------------|
E:--------------------------------------|

  verse
e:----------------------------------|
B:----------------------------------|
G:----------------------------------|
D:----------------------------------|
A:-4--x-x-x-x-x-x-x-x--4-4----7-7---|
E:-2--x-x-x-x-x-x-x-x--2-2-0--5-5-0-|


  gt1
         -
e:------/------------------------------------0-----------------|
B:-----/-------------------------------------0-----------------|
G:-4bf/-4--4p2---2---------------------------------------------|
D:-------------4---4-2-----------------------------------------|
A:---------------------4--7-7-7-7-7-7-7-7--9---9-9-9-9-9-9-9-9-|
E:------------------------5-5-5-5-5-5-5-5--7---7-7-7-7-7-7-7-7-|

  gt2
e:-------------------------------------------------------------|
B:-------------------------------------------------------------|
G:-------------------------------------------------------------|
D:-------------------------------------------------------------|
A:-4-4-4-4-4-4-4-4-4-4-4--7-7-7-7-7-7-7-7--9---9-9-9-9-9-9-9-9-|
E:-2-2-2-2-2-2-2-2-2-2-2--5-5-5-5-5-5-5-5--7---7-7-7-7-7-7-7-7-|

  gt1
e:-----------------------------------------15b-15b-15b\-|
B:-----------------------------------------18b-18b-18b\-|
G:------------------------------------------------------|
D:------------------------------------------------------|
A:-4--4-4-4-4-4----4-7-4---4--7-7-7-7-7-7---------------|
E:-2--2-2-2-2-2--0-2-5-2-0-2--5-5-5-5-5-5---------------|

  gt2
e:------------------------------------------------------------|
B:------------------------------------------------------------|
G:------------------------------------------------------------|
D:------------------------------------------------------------|
A:-4--4-4-4-4-4----4-7-4---4--7-7-7-7-7-7-7-7--9--(9)\--------|
E:-2--2-2-2-2-2--0-2-5-2-0-2--5-5-5-5-5-5-5-5--7--(7)\--------|


e:----------------------------------|
B:----------------------------------|
G:----------------------------------|
D:----------------------------------|
A:-4--x-x-x-x-x-x-x-x--4-4----7-7---|
E:-2--x-x-x-x-x-x-x-x--2-2-0--5-5-0-|

  gt1
         -
e:------/------------------------------------0-----------------|
B:-----/-------------------------------------0-----------------|
G:-4bf/-4--4p2---2---------------------------------------------|
D:-------------4---4-2-----------------------------------------|
A:---------------------4--7-7-7-7-7-7-7-7--9---9-9-9-9-9-9-9-9-|
E:------------------------5-5-5-5-5-5-5-5--7---7-7-7-7-7-7-7-7-|

  gt2
e:-------------------------------------------------------------|
B:-------------------------------------------------------------|
G:-------------------------------------------------------------|
D:-------------------------------------------------------------|
A:-4-4-4-4-4-4-4-4-4-4-4--7-7-7-7-7-7-7-7--9---9-9-9-9-9-9-9-9-|
E:-2-2-2-2-2-2-2-2-2-2-2--5-5-5-5-5-5-5-5--7---7-7-7-7-7-7-7-7-|

  gt1
e:-----------------------------------------15b-15b-15b\-|
B:-----------------------------------------18b-18b-18b\-|
G:------------------------------------------------------|
D:------------------------------------------------------|
A:-4--4-4-4-4-4----4-7-4---4--7-7-7-7-7-7---------------|
E:-2--2-2-2-2-2--0-2-5-2-0-2--5-5-5-5-5-5---------------|

  gt2
e:------------------------------------------------------------|
B:------------------------------------------------------------|
G:------------------------------------------------------------|
D:------------------------------------------------------------|
A:-4--4-4-4-4-4----4-7-4---4--7-7-7-7-7-7-7-7--9--(9)\--------|
E:-2--2-2-2-2-2--0-2-5-2-0-2--5-5-5-5-5-5-5-5--7--(7)\--------|

   solo
e:-------------------------------3/12\3-----------------------------------------------|
B:-2bf-----------------------------------5b-5b-5b-5bf----5b-5b-5b-5bf--------3----3---|
G:-4bf--4b--4b--4p2---2--------------------------------3---------------3--5b---5b---5b|
D:------------------4-----4-2---------------------------------------------------------|
A:------------------------------------------------------------------------------------|
E:------------------------------------------------------------------------------------|

e:--------------------------------------------------------------------------------|
B:-3-4p3---3-------------------14-----14-----14-----14-------14-----14-----14-----|
G:-------5---5p3-----------16b----16b----16b----16b----16b------16b----16b----16b-|
D:---------------5-3--------------------------------------------------------------|
A:-------------------5-3----------------------------------------------------------|
E:--------------------------------------------------------------------------------|

e:-------------------------------------------------------------------------------|
B:-------------------18b-18b-18b-18b~~-----18b-18b-18b-18b~~-------18b----18b----|
G:-16b-16-14~~--------------------------15-------------------15--------15-----15-|
D:-------------16\---------------------------------------------------------------|
A:-------------------------------------------------------------------------------|
E:-------------------------------------------------------------------------------|

e:------------------------------------------------------------------------------|
B:-18b----18b----18b------14b-14b-14b-14b-14b-14b-14b-14b-14b-14b-----------14--|
G:-----15-----15-----15---16b-16b-16b-16b-16b-16b-16b-16b-16b-16b--16p14----14--|
D:-----------------------------------------------------------------------16-----|
A:------------------------------------------------------------------------------|
E:------------------------------------------------------------------------------|

e:-----------------------------------------------------------------------------------|
B:----14-14-16-16p14----14-16-16p14----14-16-14------14-----14-----14-------17b-17bf-|
G:----14-14-16-16p14----14-16-16p14----14-16-14--16b----16b----16b----16-14----------|
D:-16----------------16-------------16-----------------------------------------------|
A:-----------------------------------------------------------------------------------|
E:-----------------------------------------------------------------------------------|

e:-----------------------------------------------------------------------------------|
B:-17b-17b-17b-17b-17b-17b-17b-17b-17b-17b-17b-17-17p14------------------------------|
G:------------------------------------------------------16-14--16-14-16bp14----------|
D:--------------------------------------------------------------------------16-14----|
A:-----------------------------------------------------------------------------------|
E:--------------------------------------------------------------------------------/18|


e:------------------|
B:------------------|
G:------------------|
D:------------------|
A:--4-4----7-7----4-|
E:--2-2-0--5-5-0--2-|

  gt1
         -
e:------/------------------------------------0-----------------|
B:-----/-------------------------------------0-----------------|
G:-4bf/-4--4p2---2---------------------------------------------|
D:-------------4---4-2-----------------------------------------|
A:---------------------4--7-7-7-7-7-7-7-7--9---9-9-9-9-9-9-9-9-|
E:------------------------5-5-5-5-5-5-5-5--7---7-7-7-7-7-7-7-7-|

  gt2
e:-------------------------------------------------------------|
B:-------------------------------------------------------------|
G:-------------------------------------------------------------|
D:-------------------------------------------------------------|
A:-4-4-4-4-4-4-4-4-4-4-4--7-7-7-7-7-7-7-7--9---9-9-9-9-9-9-9-9-|
E:-2-2-2-2-2-2-2-2-2-2-2--5-5-5-5-5-5-5-5--7---7-7-7-7-7-7-7-7-|


  gt1
e:-----------------------------------------15b-15b-15b\-|
B:-----------------------------------------18b-18b-18b\-|
G:------------------------------------------------------|
D:------------------------------------------------------|
A:-4--4-4-4-4-4----4-7-4---4--7-7-7-7-7-7---------------|
E:-2--2-2-2-2-2--0-2-5-2-0-2--5-5-5-5-5-5---------------|

  gt2
e:------------------------------------------------------------|
B:------------------------------------------------------------|
G:------------------------------------------------------------|
D:------------------------------------------------------------|
A:-4--4-4-4-4-4----4-7-4---4--7-7-7-7-7-7-7-7--9--(9)\--------|
E:-2--2-2-2-2-2--0-2-5-2-0-2--5-5-5-5-5-5-5-5--7--(7)\--------|


e:------------------------------------------------------------|
B:------------------------------------------------------------|
G:------------------------------------------------------------|
D:------------------------------------------------------------|
A:-4----------------------------------------------------------|
E:-2----------------------------------------------------------|




hillo son mex

9/11/10





Comments


Popular Nashville Pussy tabs & chords
Struttin Cock Bass Tabs
Go Motherfucker Go Tabs
Go To Hell Intro Tabs
Hate Whiskey Tabs
Im The Man Tabs
Shoot First Then Run Like Hell Tabs
Snake Eyes Tabs


Song lyrics



↑ Back to top | Tablatures and chords are parodies/interpretations of the original songs. You may use it for private study, scholarship, research or language learning purposes only
© 2014 AZChords.com Contact us | Privacy policy | DMCA | Add/correct tabs | Request tabs | Top 50 tabs