» » »

Nashville Pussy, Hate Whiskey Tabs (ver.1)

Artists:  A B C D E F G H I J K L M N O P Q R S T U V W X Y Z # 

Hate Whiskey Tabs (ver.1)

Nashville Pussy Tabs
Rating:
0/5 (0 votes)
Hate Whiskey lessons Tabs too difficult? Try these video lessons and learn fast
                Nashville Pussy - "Hate & Whiskey"
Tuning: eBGDAE


Tab Key:
h = Hammer-On
p = Pull-Off
/ = Slide up
\ = Slide
~ = Vibrato
b = Bend
r = Return Bend

Main riff thing:
e-----------------------10p7-------------------|
B-------10-12-12~-12--------10p7---------------|
G-11-11-------------------------9p7-9b10r9-9~--|
D----------------------------------------------|
A----------------------------------------------|
E----------------------------------------------|

e------------------------------------------|
B-10p7-------------------------------------|
G-----9p7---7-9-7---------7-----7----------|
D---------9-------9~----9---7h9---9p7-9~~--|
A------------------------------------------|
E------------------------------------------|




Chords For Verse: (Listen to song for timing)
   B5   D5   A5   B5
e----------------------|
B----------------------|
G---4----7----2----4---|
D---4----7----2----4---|
A---2----5----0----2---|
E----------------------|


Chords for Chorus: (Listen to song for timing)

e-----------------|
B-----------------|
G-----------------|
D---5----7----9---|
A---5----7----9---|
E---3----5----7---|

Solo:

e------------------------------------------------------------------|
B-------------------------------------10-10------------------------|
G--------------9b11-9b11r9p7-9p7-9b11^^^^^^^r9--7-7h9p7-9b11r9p7---|
D-9p7-7-7h9-9----------------------------------------------------9-|
A------9-----------------------------------------------------------|
E------------------------------------------------------------------|


e----------------------------------------------------------------|
B----------------------------------------------------------------|
G-----9----------------------------------------------------------|
D-9/11-11\9--\7-7-7----------------------------------------------|
A-------------------9p7-5h7--5-5h7p5----------7h9p7--------------|
E------------------------------------5h7-7-7-------7h9p7-5h7-7-7-|


e---------------------------------|
B---------------------------------|
G----------9-9b11r9--9-7-9-7------|
D-9-7-9-9--------------------9~~--|
A---------------------------------|
E---------------------------------|


e-------------------------------------------|
B-7-10b12r10-10b12r10-7-7h10p7--------------|
G------------------------------9-9h11p9-7---|
D-----------------------------------------9-|
A-------------------------------------------|
E-------------------------------------------|

e-------------------------------------------------------|
B-------------------------------------------------------|
G------------------------------7----7-9b11r9p7----------|
D-9b10r9-9p7-9p7---7---7---7-----9-------------9p7h9~~~-|
A----------------9-------9---9--------------------------|
E-------------------------------------------------------|

And that's about it!
            

comments powered by Disqus
↑ Back to top | Nashville Pussy Tabs for Hate Whiskey. Lyrics for acoustic guitar and electric guitar. Tablatures and chords are parodies/interpretations of the original songs. You may use it for private study, scholarship, research or language learning purposes only